Breaking Benjamin - No Games Chords & Tabs

 

No Games Chords & Tabs

Breaking Benjamin Chords & Tabs

Version: 1 Type: Tab 1 rating
1 star 2 stars 3 stars 4 stars 5 stars
comments

No Games Tab

tabbed by matt pizer

artist: breaking benjamin

song: no games

tune guitar 1/2 step down, then to drop d
i didn't put timing, but its easy to get
this is a great song...learn it

~~~~~~~~~~~~~~~~~~~~~~~~~~~~~~~~~~~~~~~~~~~~~~~~~~~~~~~~~~~~~~~~~~~~~~~~~~
intro: play 1x clean
--------------------------------------------------------
--------------------------------------------------------
--------------------------------------------------------
--------------------------------------------------------
------7-------9--11---------------7------6--2-----------
----4-------7----x--------------4------2----x-----------
--4------/7------0------------4------2------0-----------
[ Tab from: http://www.guitartabs.cc/tabs/b/breaking_benjamin/no_games_tab.html ]
verse part 1a: play 3x clean 
-----------------------------
-----------------------------
-----------------------------
---------------------------9-  x 3 
------7-------9------11-11---
----4-------7------0---0--0--
--4------/7------0-----------

verse part 1b: after three times play this once clean:
---------------------------
---------------------------
---------------------------
-------------------------2-  x 1 
------7------6-------2-2---
----4------2-------0--0-0--
--4------2------0----------

after playing verse part 1 2x, play this 4x with distortion:
--------------
--------------
---4--2--0----
---4--2--0----
---4--2--0----

chorus, play 4x:
---------------------------------------------------
---------------------------------------------------
-------------------------66666666---77777777-------
---77777777---44444444---66666666---77777777-------
---77777777---44444444---44444444---55555555-------
---77777777---44444444-----------------------------
































Comments