Breaking Benjamin - No Games Chords & Tabs

 

No Games Chords & Tabs

Breaking Benjamin Chords & Tabs

Version: 1 Type: Bass Tab 0 ratings
1 star 2 stars 3 stars 4 stars 5 stars
comments

No Games Bass Tab

Band- Breaking Benjamin
Song- No Games

*=hold note

Intro/post chorus
Gb-------------------------------------------------------------|
Db-------------------------------------------------------------|
Ab-----------240-00020-240-0002p0-240-00020--------------------|
Db-7-5-12*--\\-------------------------------7-5-12*--\\-------|

Verses       end with
Gb-------|--------------|
Db-------|--------------|
Ab-------|--------------|
Db-2-4-0*|-7-5-12*--\---|

Pre-chorus
Gb-----------------|
Db-----------------|
Ab-----------------|
Db-2-4-0--0-0-0000-|

Chorus X2
Gb---------------------------------------|
Db---------------------------------------|
Ab-------------------44444444-55557777---|
Db--77777777-44444444--------------------|
[ Tab from: http://www.guitartabs.cc/tabs/b/breaking_benjamin/no_games_btab.html ]
Bridge
Gb--------------------------------|
Db--------------------------------|
Ab-0-2-44-5\\4-0--4-5-7-7-9/7--4--|
Db--------------------------------|

Interlude
Gb----------------------|
Db----------------------|
Ab------------------5555|
Db-0000-00-0000-000-----|

Last Chorus/outro
Gb---------------------------------------|
Db---------------------------------------|
Ab-------------------66666666-77779999---|
Db-99999999-66666666---------------------|

Gb--------------------------------------|
Db--------------------------------------|
Ab--------------------------------------|
Db-99999999-44444444--77777777-22224444-|

Gb-------------------------------------------|
Db-------------------------------------------|
Ab-------------------------------------------|
Db-99999999-44444444-77777777--X-2---X-4--9~-|
Comments