Breaking Benjamin - Next To Nothing Chords & Tabs

 

Next To Nothing Chords & Tabs

Breaking Benjamin Chords & Tabs

Version: 1 Type: Bass Tab 0 ratings
1 star 2 stars 3 stars 4 stars 5 stars
comments

Next To Nothing Bass Tab

Band- Breaking Benjamin
Song- Next To Nothing

verse
Gb--------------|
Db--------------|
Ab--4--0--------|
Db--------4--4--|


pre-chorus
Gb--------------------|
Db--------------------|
Ab--0000000022222222--|
Db--------------------|

chorus
Gb-------------------------|
Db-------------------------|
Ab-------0-000--4-4--2-222-|
Db--2-2--------------------|
[ Tab from: http://www.guitartabs.cc/tabs/b/breaking_benjamin/next_to_nothing_btab.html ]
post-chorus 1
Gb--------------------|
Db--------------------|
Ab--0000000022222222--|
Db--------------------|

post-chorus 2
Gb------------------------|
Db------------------------|
Ab--0-0-0-0-2--0-0-0-2----|
Db---------------------6--|

order

verse 6x
pre-chorus 2x
chorus 4x
post-chorus 1 1x
verse 6x
pre-chorus 2x
chorus 4x
post-chorus 2 5x
verse 4x
chorus 4x
post-chorus 1 2x
verse 4x
Comments