Breaking Benjamin - Natural Life Chords & Tabs

 

Natural Life Chords & Tabs

Breaking Benjamin Chords & Tabs

Version: 1 Type: Tab 0 ratings
1 star 2 stars 3 stars 4 stars 5 stars
comments

Natural Life Tab

Band: Breaking Benjamin
Song: Natural Life
Album: Saturate
Tabbed by: innerfears
http://www.shallowbay.com

Special thanks to Aaron Fink for taking the time to video tape an exclusive lesson of
this song for The Shallow Bay. That means this tab is 99% correct!

Intro
Eb------------------------------------------------------|
Bb------------------------------------------------------|
Gb------------------------------------------------------|
Db------------------------------------------------------|
Ab-------7---8-------10---7-------8---5-------7---3-----|
Db-0-0-0---0---0-0-0----0---0-0-0---0---0-0-0---0-------|
 PM- - - - - - - - - -  - - - - - - - - - - - - - -

play 4x

Eb------------------------------------------------------------|
Bb------------------------------------------------------------|
Gb------------------------------------------------------------|
Db------------------------------------------------------------|
Ab-0-*-0-*-0-*-0-*---<5>---<5>-0-*-0-*-0-*-0-*---<5>---<5>----|
Db-0-*-0-*-0-*-0-*-0-----0-----0-*-0-*-0-*-0-*-0-----0--------|

Eb------------------------------------------------------------|
Bb------------------------------------------------------------|
Gb------------------------------------------------------------|
Db------------------------------------------------------------|
Ab-0-*-0-*-0-*-0-*---<5>-------0-*-0-*-0-*-0-*---<5>----------|
Db-0-*-0-*-0-*-0-*-0-----0-<4>-0-*-0-*-0-*-0-*-0-----0-<4>----|

Verse
Eb-------------------------------------------------------------------------|
Bb-------------------------------------------------------------------------|
Gb-------------------------------------------------------------------------|
Db-------------------------------------------------------------------------|
Ab---8-------8---8-------8---8-------8---8-------8---8-------8---8-------8-|
Db-0---0-8-0---0---0-8-0---0---0-8-0---0---0-8-0---0---0-8-0---0---0-8-0---|
 PM- - - - - - - - - - - - - - - - - - - - - - - - - - - - - -

Eb------------------------------------------------------|
Bb------------------------------------------------------|
Gb------------------------------------------------------|
Db------------------------------------------------------|
Ab------------------------------------------------------|
Db-8-0-8-10-0-10-5-0-5-8-0-8----------------------------|

play 2x (on second time gradually let up on the palm muting)

Chorus

Aaron Guitar Part 1
Eb------------------------------------------------------|
Bb-6--6--6--8--8--8-------------------------------------|
Gb-5--5--5--7--7--7--10-10-10-10-10-10-101010-10-10-10--|
Db-3--3--3--5--5--5--x--x--x--10-10-10-8-8-8--10-10-10--|
Ab-3--3-030-5--5-050-8--8--8--10-10-10-8-8-8--10-10-10--|
Db-3--3-030-5--5-050----------10-10-10-8-8-8--10-10-10--|

Ben Guitar Part 1
Eb------------------------------------------------------|
Bb------------------------------------------------------|
Gb-5--5--5--7--7--7------555-333-555--------------------|
Db-3--3--3--5--5--5--333-555-111-555--------------------|
Ab-3--3-030-5--5-050-333-333-111-333--------------------|
Db-3--3-030-5--5-050-333--------------------------------|

Aaron Guitar Part 2
Eb------------------------------------------------------|
Bb-6--6--6--8--8--8-------------------------------------|
Gb-5--5--5--7--7--7--101010-999-777-999-----------------|
Db-3--3--3--5--5--5--x-x-x--xxx-xxx-xxx-----------------|
Ab-3--3-030-5--5-050-8-8-8--777-555-777-----------------|
Db-3--3-030-5--5-050------------------------------------|

Ben Guitar Part 2
Eb------------------------------------------------------|
Bb------------------------------------------------------|
Gb-5--5--5--7--7--7------555-333-555--------------------|
Db-3--3--3--5--5--5--333-555-111-555--------------------|
Ab-3--3-030-5--5-050-333-333-111-333--------------------|
Db-3--3-030-5--5-050-333--------------------------------|

Aaron Guitar Part 3
Eb------------------------------------------------------|
Bb-6-*-6-6--8-*-8-8-------------------------------------|
Gb-5-*-5-5--7-*-7-7--10-10-10-10-10-10-101010-10-10-10--|
Db-3-*-3-3--5-*-5-5--x--x--x--10-10-10-8-8-8--10-10-10--|
Ab-3-*-3030-5-*-5050-8--8--8--10-10-10-8-8-8--10-10-10--|
Db-3-*-3030-5-*-5050----------10-10-10-8-8-8--10-10-10--|

Ben Guitar Part 3
Eb------------------------------------------------------|
Bb------------------------------------------------------|
Gb-5-*-5-5--7-*-7-7------555-333-555--------------------|
Db-3-*-3-3--5-*-5-5--333-555-111-555--------------------|
Ab-3-*-3030-5-*-5050-333-333-111-333--------------------|
Db-3-*-3030-5-*-5050-333--------------------------------|

Aaron Guitar Part 4
Eb------------------------------------------------------|
Bb-6--6--6--8--8--8--------------------10---------------|
Gb-5--5--5--7--7--7--10-10-10-10-10-10-10---------------|
Db-3--3--3--5--5--5--x--x--x--10-10-10-8----------------|
Ab-3--3-030-5--5-050-8--8--8--10-10-10-8----------------|
Db-3--3-030-5--5-050----------10-10-10-8----------------|

Ben Guitar Part 4
Eb------------------------------------------------------|
Bb------------------------------------------------------|
Gb-5--5--5--7--7--7------555-3--------------------------|
Db-3--3--3--5--5--5--333-555-1--------------------------|
Ab-3--3-030-5--5-050-333-333-1--------------------------|
Db-3--3-030-5--5-050-333--------------------------------|

Eb------------------------------------------------------------|
Bb------------------------------------------------------------|
Gb------------------------------------------------------------|
Db------------------------------------------------------------|
Ab-0-*-0-*-0-*-0-*---<5>---<5>-0-*-0-*-0-*-0-*---<5>---<5>----|
Db-0-*-0-*-0-*-0-*-0-----0-----0-*-0-*-0-*-0-*-0-----0--------|

Eb------------------------------------------------------------|
Bb------------------------------------------------------------|
Gb------------------------------------------------------------|
Db------------------------------------------------------------|
Ab-0-*-0-*-0-*-0-*---<5>-------0-*-0-*-0-*-0-*---<5>----------|
Db-0-*-0-*-0-*-0-*-0-----0-<4>-0-*-0-*-0-*-0-*-0-----0-<4>----|

Verse

Chorus

Break
Eb------------------------------------------------------|
Bb----------------------------------------------5/6-----|
Gb-------------------5--------7----5------------5/7-----|
Db-0-----------------3--------5----3---0----------------|
Ab-0-----------------3--------5----3---0----------------|
Db-0-----------------3--------5----3---0----------------|
[ Tab from: http://www.guitartabs.cc/tabs/b/breaking_benjamin/natural_life_tab.html ]
Eb----------------------------------------------------------------------------|
Bb----------------------------------------------------------------------------|
Gb-5--------7---------5-------------------------------------------------------|
Db-3--------5---------3-------------2-----------2-----------2-----------2-----|
Ab-3--------5---------3---------3-0---------3-0---------3-0---------3-0-------|
Db-3--------5---------3---0-3-0-------0-3-0-------0-3-0-------0-3-0-----------|
                        PM- - - - - - - - - - - - - - - - - - - - - - - -

Eb------------------------------------------------------|
Bb------------------------------------------------------|
Gb------------------------------------------------------|
Db-----------2-----------2-----------2-----------2------|
Ab-------3-0---------3-0---------3p0---------3p0--------|
Db-0-3-0-------0-3-0-------0-3p0-------0-3p0------------|
 PM- - - - - - - - - - - - gradually lighten up the tension on the 7th and 8th times
                           and begin to play normally

Eb------------------------------------------------------|
Bb------------------------------------------------------|
Gb------------------------------------------------------|
Db------------------------------------------------------|
Ab-------7---8-------10---7-------8---5-------7---3-----|
Db-0-0-0---0---0-0-0----0---0-0-0---0---0-0-0---0-------|

play twice

Aaron's Guitar Part
Eb------------------------------------------------------|
Bb------------------------------------------------------|
Gb------------------------------------------------------|
Db-------9---10------12---9-------10--7-------9---5-----|
Ab-------7---8-------10---7-------8---5-------7---3-----|
Db-0-0-0---0---0-0-0----0---0-0-0---0---0-0-0---0-------|

Ben's Guitar Part
Eb------------------------------------------------------|
Bb------------------------------------------------------|
Gb------------------------------------------------------|
Db------------------------------------------------------|
Ab------*7--*8------*10--*7------*8--*5------*7--*3-----|
Db-0-0-0---0---0-0-0----0---0-0-0---0---0-0-0---0-------|
* = slight harmonic with a slight bend

play twice

Aaron's Guitar Part
Eb------------------------------------------------------|
Bb------------------------------------------------------|
Gb------------------------------------------------------|
Db-----2/333-222---------2/333-222----------------------|
Ab-111-----------330-111-----------330------------------|
Db------------------------------------------------------|

Ben's Guitar Part
Eb------------------------------------------------------|
Bb------------------------------------------------------|
Gb------------------------------------------------------|
Db-333-101010-999-555-333-101010-999-555----------------|
Ab-111-8-8-8--777-333-111-8-8-8--777-333----------------|
Db------------------------------------------------------|

Both Guitar Parts
Eb------------------------------------------------------|
Bb------------------------------------------------------|
Gb-5/7-77-----10\7---5/7--------------------------------|
Db-5/7-77-----10\7---5/5--------------------------------|
Ab-3/5-55-000-8-\5---3/5--------------------------------|
Db--------000------0-----0------------------------------|
        PM---
then

Aaron's Guitar Part
Eb------------------------------------------------------|
Bb------------------------------------------------------|
Gb------------------------------------------------------|
Db-----2/333-222----------------------------------------|
Ab-111-----------330------------------------------------|
Db------------------------------------------------------|

Ben's Guitar Part
Eb------------------------------------------------------|
Bb------------------------------------------------------|
Gb------------------------------------------------------|
Db-333-101010-999-555-----------------------------------|
Ab-111-8-8-8--777-333-----------------------------------|
Db------------------------------------------------------|

Both Guitar Parts
Eb------------------------------------------------------|
Bb------------------------------------------------------|
Gb-5/7-77-----10\7---5/7--------------------------------|
Db-5/7-77-----10\7---5/5--------------------------------|
Ab-3/5-55-000-8-\5---3/5--------------------------------|
Db--------000------0-----0------------------------------|
        PM---

Aaron's Guitar Part
Eb------------------------------------------------------|
Bb------------------------------------------------------|
Gb------------------------------------------------------|
Db-----2/333-222----------------------------------------|
Ab-111-----------330------------------------------------|
Db------------------------------------------------------|

Ben's Guitar Part
Eb------------------------------------------------------|
Bb------------------------------------------------------|
Gb------------------------------------------------------|
Db-333-101010-999-555-----------------------------------|
Ab-111-8-8-8--777-333-----------------------------------|
Db------------------------------------------------------|

Both Guitar Parts
Eb------------------------------------------------------|
Bb------------------------------------------------------|
Gb-5/7-77-----10\7---5/7--------------------------------|
Db-5/7-77-----10\7---5/5--------------------------------|
Ab-3/5-55-000-8-\5---3/5--------------------------------|
Db--------000------0-----0------------------------------|
        PM---

Aaron's Guitar Part
Eb------------------------------------------------------|
Bb------------------------------------------------------|
Gb------------------------------------------------------|
Db-----2/333-222---------2/333-2-*-2-*-22---------------|
Ab-111-----------330-111-------3-*-3-*-33---------------|
Db------------------------------------------------------|

Ben's Guitar Part
Eb------------------------------------------------------|
Bb------------------------------------------------------|
Gb------------------------------------------------------|
Db-333-101010-999-555-333-101010-2-*-2-*-22-------------|
Ab-111-8-8-8--777-333-111-8-8-8--3-*-3-*-33-------------|
Db------------------------------------------------------|

Chorus

Eb------------------------------------------------------------|
Bb------------------------------------------------------------|
Gb------------------------------------------------------------|
Db------------------------------------------------------------|
Ab-0-*-0-*-0-*-0-*---<5>---<5>-0-*-0-*-0-*-0-*---<5>---<5>----|
Db-0-*-0-*-0-*-0-*-0-----0-----0-*-0-*-0-*-0-*-0-----0--------|

Eb------------------------------------------------------------|
Bb------------------------------------------------------------|
Gb------------------------------------------------------------|
Db------------------------------------------------------------|
Ab-0-*-0-*-0-*-0-*---<5>-------0-*-0-*-0-*-0-*---<5>----------|
Db-0-*-0-*-0-*-0-*-0-----0-<4>-0-*-0-*-0-*-0-*-0-----0-<4>----|

Outro
Eb-------------------------------------------------------------------|
Bb-------------------------------------------------------------------|
Gb-------------------------------------------------------------------|
Db-------------------------------------------------------------------|
Ab-------------5p0-5-------------5p0-5-------------5p0-5---------0-*-|
Db-0xx-0xx-0xx-------0xx-0xx-0xx-------0xx-0xx-0xx-------0xx-0xx-0-*-|

* = pause
- = palm mute
< > = harmonic
Comments