Breaking Benjamin - Medicate Chords & Tabs

 

Medicate Chords & Tabs

Breaking Benjamin Chords & Tabs

Version: 2 Type: Bass Tab 0 ratings
1 star 2 stars 3 stars 4 stars 5 stars
comments

Medicate Bass Tab

   
-------------------------------------------------------------------------------
			     Medicate - Breaking Benjamin
-------------------------------------------------------------------------------  
This is The Correct Tab For This Song

Tabbed By : Reeder21
e-mail: rock1612@hotmail.com

Tuning: All of their songs are in this tunning Db,Ab,Db,Gb

Intro : 


Gb|---------------------------------------------------------------------------|
Db|---------------------------------------------------------------------------|
Ab|---------------------------------------------------------------------------|
Db|-0-0-0-0-4-4-4-4-8-8-8-8-7-7-7-7-------------------------------------------|

Verse :
[ Tab from: http://www.guitartabs.cc/tabs/b/breaking_benjamin/medicate_btab_ver_2.html ]
Gb|---------------------------------------------------------------------------|
Db|---------------------------------------------------------------------------|
Ab|---------------------------------------------------------------------------|
Db|-0-0-4-4-/-8-8-7-8-7-------------------------------------------------------|

Chorus :

Gb|---------------------------------------------------------------------------|
Db|---------------------------------------------------------------------------|
Ab|-------------------------------3-3-3-3-3-3-3-3-- 5-5-5-5-5-5-5-5-----------|
Db|-8-8-8-8-8-8-\-3-3-3-3-3-3-3-3----------------------------------8-8-8--8-8-|

Bridge : Is the same as the intro

Gb|---------------------------------------------------------------------------|
Db|---------------------------------------------------------------------------|
Ab|---------------------------------------------------------------------------|
Db|-0-0-0-0-4-4-4-4-8-8-8-8-7-7-7-7-------------------------------------------|
This is the correct tab 


| /  slide up
| \  slide down
| h  hammer-on
| p  pull-off
| ~  vibrato
| +  harmonic
| x  Mute note
===============================================================================
Comments