Breaking Benjamin - Ladybug Chords & Tabs

 

Ladybug Chords & Tabs

Breaking Benjamin Chords & Tabs

Version: 2 Type: Tab

Ladybug Tab

Verses
|---------------------------------------------------------|
|---------------------------------------------------------|
|--222222222222--5/7----------33333333--55555555----------|
|--222222222222--5/7----------33333333--55555555----------|
|--000000000000--3/5-<3times--11111111--33333333----------|
|---------------------------------------------------------| <3 times

Prechorus
|------------------------------------------|
|------------------------------------------|
|--------------------2222222222222222------|
|--5555555555555555--2222222222222222------|
|--5555555555555555--0000000000000000------|
|--3333333333333333------------------------|
[ Tab from: http://www.guitartabs.cc/tabs/b/breaking_benjamin/ladybug_tab_ver_2.html ]
Chorus
|------------------------------------------|
|------------------------------------------|
|--44444444--66666666--88888888-99999999---|
|--44444444--66666666--88888888-99999999---|
|--22222222--44444444--66666666-77777777---|
|------------------------------------------| <4 times

Interlude
|------------------------------------------|
|------------------------------------------|
|-44xxxx44xxxx444444444444-7/9-------------|
|-44xxxx44xxxx444444444444-7/9-------------|
|-22xxxx22xxxx222222222222-5/7-------------|
|------------------------------------------|

|------------------------------------------|         |------------------| 
|------------------------------------------|         |------------------|
|-4444----------7/9------------------------|         |--3333------------|
|-4444----------7/9------------------------|         |--3333------------|  
|-2222<3times---5/7------------------------|         |--1111<4times-----|  
|------------------------------------------|<2 times |------------------|