Breaking Benjamin - Ladybug Chords & Tabs

 

Ladybug Chords & Tabs

Breaking Benjamin Chords & Tabs

Version: 1 Type: Bass Tab 0 ratings
1 star 2 stars 3 stars 4 stars 5 stars
comments

Ladybug Bass Tab

Band- Breaking Benjamin
Song- Ladybug

*=hold

Intro
|----------------------------|----------------------------|
|----------------------------|----------------------------|
|----------------------------|----------------------------|
|-4-4-4-4-4-4-4-4-4-4-4-4-4/8|-4-4-4-4-4-4-4-4-4-4-4-4-4/8|

|----------------------------|----------------------------|
|----------------------------|----------------------------|
|----------------------------|---------9-9-7-7-9-9-7\-----|
|-4-4-4-4-4-4-4-4-4-4-4-4-4/8|-4-4-4-4-----------------4/8|

Verse 
|----|R|-----|----|R|-----|
|----|E|-----|----|E|-----|
|----|S|-----|----|S|-----|
|-4--|T|--4/8|-4--|T|--4/8|      

|----------------------------|-------------------------------|
|----------------------------|-------------------------------|
|----------------------------|-------------------------------|
|-4-4-4-4-4-4-4-4-4-4-4-4-4-2|-0--0-0-0-0-0-0--2--2-2-2-2-2-2|

|------------------------------|--------------------------|
|------------------------------|--------------------------|
|------------------------------|--------------------------|
|-4-4-4-4-4-4-4-4-4-4-4-4-4/8|-4-4-4-4-4-4-4-4-4-4-4-4-4/8|         

|----------------------------|-------------------------------|
|----------------------------|-------------------------------|
|----------------------------|-------------------------------|
|-4-4-4-4-4-4-4-4-4-4-4-4-4-2|-0--0-0-0-0-0-0--2--2-2-2-2-2-2|


Pre-Chorus
|----------------------------|----------------------------|
|----------------------------|----------------------------|
|----------------------------|----------------------------|
|-4-4-4-4-4-4-4-4-4-4-4-4-4/8|-4-4-4-4-4-4-4-4-4-4-4-4-4-2|

|----------------------------------------------------------------|
|----------------------------------------------------------------|
|----------------------------------------------------------------|
|-0-0-0-0-0-0-0-0-0-0-0-0-0-0-0-0-2-2-2-2-2-2-2-2-2-2-2-2-2-2-2-2|
[ Tab from: http://www.guitartabs.cc/tabs/b/breaking_benjamin/ladybug_btab.html ]
Chorus X2
|----------------|--------------|----------------------|----------------------|
|----------------|--------------|----------------------|----------------------|
|----------------|--------------|----------------------|----------------------|
|-7--7-7-7-7-7-7-|9--9-9-9-9-9-9|-11--11-11-11-11-11-11|--12-12-11-11-12-12-11|

Post chorus
|----------------------------------------------------------------|
|----------------------------------------------------------------|
|----------------------------------------------------------------|
|-7-7-7-7-7-7-7-7-9-9-9-9-9-9-11-7-7-7-7-7-7-7-7-7-7-7-7-7----4/8|

|------------------------------|----------------------------|
|------------------------------|----------------------------|
|------------------------------|----------------------------|
|-4-4-4-4-4-4-4-4-4-4-4-4-4-4/8|-4-4-4-4-4-4-4-4-4-4-4-4-4/8|

|------------------------------|---------------------------|
|------------------------------|---------------------------|
|------------------------------|--------9-9-7-7-9-9-7\-----|
|-4-4-4-4-4-4-4-4-4-4-4-4-4-4/8|-4-4-4-4----------------4/8|

Bridge
|------|-R-|--------------------------------|
|------|-E-|--------------------------------|
|------|-S-|--------------------------------|
|-9-9-9|-T-|-4/8-9-9-9-9-9-9-9-9-9-9-9-9-9-8|

|------------------------------|----------------------------|
|------------------------------|----------------------------|
|------------------------------|----------------------------|
|-4-4-4-4-4-4-4-4-4-4-4-4-4-4/8|-4-4-4-4-4-4-4-4-4-4-4-4-4/8|

|------------------------------|----------------------------|
|------------------------------|----------------------------|
|------------------------------|----------------------------|
|-9-9-9-9-9-9-9-9-9-9-9-9-9-9-8|-9-9-9-9-9-9-9-9-9-9-9-9-9-8|

|----------------------------|
|----------------------------|
|----------------------------|
|-11-11-11-11-11-11-11-11--11|

Last Chorus\'s post chorus  X2
|--------------------------------------------------------|
|--------------------------------------------------------|
|--------------------------------------------------------|
|-7-7-7-7-7-7-7-7-9-9-9-9-9-9-9-7-7-7-7-7-7-7-7-7-7-7-7-7|

Outro
|--------|--------------|--------------|-------------------|
|--------|--------------|--------------|-------------------|
|--------|--------------|--------------|-------------------|
|-9-9--9\|-7--9--7--11-7|-7--9--7--11-7|-7-7-7-7-7-7-7-7--7|
Comments