Breaking Benjamin - Home Chords & Tabs

 

Home Chords & Tabs

Breaking Benjamin Chords & Tabs

Version: 2 Type: Tab 0 ratings
1 star 2 stars 3 stars 4 stars 5 stars
comments

Home Tab

   
Artist: Breaking Benjamin
Song: Home
Album: Saturate
Tabbed by: DarkStar11589
http://www.shallowbay.com

Notation:
  h - hammer on 
  p - pull off 
  b - bend string up
  r - release bend
  / - slide up
  \ - slide down
  p.m. - palm muting
  a.h. - artificial harmonic

Tuning (low to high):  Db, Ab, Db, Gb, Bb, Eb

Intro     
Eb|-----------------------------|
Bb|-----------------------------|
Gb|-------------------------8---|
Dd|-0---0-0---0-0---0-0---0-8---|
Ad|-0---0-0---0-0---0-0---0-6---|
Dd|-0---0-0---0-0---0-0---0-8---|

Eb|-----------------------------|-----------------------------|
Bb|-----------------------------|-----------------------------|
Gb|-------------------------8---|-------------------------8---|
Dd|-0---0-0---0-0---0-0---0-8---|-0---0-0---0-0---0-0---0-8---|
Ad|-0---0-0---0-0---0-0---0-6---|-0---0-0---0-0---0-0---0-6---|
Dd|-0---0-0---0-0---0-0---0-8---|-0---0-0---0-0---0-0---0-8---|

Eb|-----------------------------|-------------------------9b--|
Bb|-----------------------------|-----------------------------|
Gb|-------------------------8---|-----------------------------|
Dd|-0---0-0---0-0---0-0---0-8---|-0---0-0---0-0---0-0---0-----|
Ad|-0---0-0---0-0---0-0---0-6---|-0---0-0---0-0---0-0---0-----|
Dd|-0---0-0---0-0---0-0---0-8---|-0---0-0---0-0---0-0---0-----|

Eb|-----------------------------|-----------------------------|
Bb|-----------------------------|-----------------------------|
Gb|-------------------------8---|-------------------------8---|
Dd|-0---0-0---0-0---0-0---0-8---|-0---0-0---0-0---0-0---0-8---|
Ad|-0---0-0---0-0---0-0---0-6---|-0---0-0---0-0---0-0---0-6---|
Dd|-0---0-0---0-0---0-0---0-8---|-0---0-0---0-0---0-0---0-8---|

Eb|-----------------------------|-----------------------------|
Bb|-----------------------------|-----------------------------|
Gb|-------------------------8---|-------------------------8---|
Dd|-0---0-0---0-0---0-0---0-8---|-0---0-0---0-0---0-0---0-8---|
Ad|-0---0-0---0-0---0-0---0-6---|-0---0-0---0-0---0-0---0-6---|
Dd|-0---0-0---0-0---0-0---0-8---|-0---0-0---0-0---0-0---0-8---|

Verse (00:23) "I've got a little..."
Eb|-----------------------------|-----------------------------|
Bb|-----------------------------|-----------------------------|
Gb|---------------------8-------|---------------------8-------|
Dd|-0----3----0----3----8-------|-0----3----0----3----8-------|
Ad|-0----3----0----3----6-------|-0----3----0----3----6-------|
Dd|-0----3----0----3------------|-0----3----0----3------------|
    p.m  p.m  p.m  p.m            p.m  p.m  p.m  p.m
        *play 4x

Eb|-----------------------------|-----------------------------|
Bb|-----------------------------|-----------------------------|
Gb|-----------------------------|-----------------------------|
Dd|-5----8----5----8----1-------|-5----8----5----8----1-------|
Ad|-5----8----5----8----1-------|-5----8----5----8----1-------|
Dd|-5----8----5----8----1-------|-5----8----5----8----1-------|

Eb|-----------------------------|-----------------------------|
Bb|-----------------------------|-----------------------------|
Gb|---------------------8-------|---------------------8-------|
Dd|-0----3----0----3----8-------|-0----3----0----3----8-------|
Ad|-0----3----0----3----6-------|-0----3----0----3----6-------|
Dd|-0----3----0----3------------|-0----3----0----3------------|
    p.m  p.m  p.m  p.m            p.m  p.m  p.m  p.m

Prechorus (00:53) "There's no place like..."
Eb|-----------------------------|-----------------------------|
Bb|-----------------------------|-----------------------------|
Gb|-5----5---5----5-----5----5--|-----------------------------|
Dd|-5----5---5----5-----5----5--|-1----1---1----1----1----1---|
Ad|-3----3---3----3-----3----3--|-1----1---1----1----1----1---|
Dd|-----------------------------|-1----1---1----1----1----1---|
       *play 2x
[ Tab from: http://www.guitartabs.cc/tabs/b/breaking_benjamin/home_tab_ver_2.html ]
Eb|-----------------------------|-----------------------------|
Bb|-----------------------------|-----------------------------|
Gb|-----------------------------|-----------------------------|
Dd|-0----3----0----3----1--(1)--|-0----3----0----3----1--(1)--|
Ad|-0----3----0----3----1--(1)--|-0----3----0----3----1--(1)--|
Dd|-0----3----0----3----1--(1)--|-0----3----0----3----1--(1)--|
       *play 2x (then back to verse)

Chorus (01:55) "It's a little white..."
Eb|-----------------------------|-----------------------------|
Bb|-----------------------------|-----------------------------|
Gb|-3----3---3---3---3--3--3--3-|-----------------------------|
Dd|-3----3---3---3---3--3--3--3-|-5----5---5---5---5--5--5--5-|
Ad|-1----1---1---1---1--1--1--1-|-5----5---5---5---5--5--5--5-|
Dd|-----------------------------|-5----5---5---5---5--5--5--5-|

Eb|-----------------------------|-----------------------------|
Bb|-----------------------------|-----------------------------|
Gb|-----------------------------|-----------------------------|
Db|-3----3---3---3---3--3--3--3-|-1----1---1---1---1--1--1--1-|
Ab|-3----3---3---3---3--3--3--3-|-1----1---1---1---1--1--1--1-|
Db|-3----3---3---3---3--3--3--3-|-1----1---1---1---1--1--1--1-|
       *play 2x

Bridge (02:15)
Eb|-----------------------------|-----------------------------|
Bb|-----------------------------|-----------------------------|
Gb|-----------------------------|-----------------------------|
Dd|-----------------------------|-----------------------------|
Ad|-5----8----5----8----5---6---|-5----8----5----8----5---6---|
Dd|-----------------------------|-----------------------------|
    *use a.h. for next 3 bars
Eb|-----------------------------|-----------------------------|
Bb|-----------------------------|-----------------------------|
Gb|-----------------------------|-----------------------------|
Dd|-----------------------------|---------------------8-------|
Ad|-5----8----5----8----5---6---|-5----8----5----8----6-------|
Dd|-----------------------------|-----------------------------|

Eb|-----------------------------|-----------------------------|
Bb|-----------------------------|-----------------------------|
Gb|-----------------------------|-----------------------------|
Dd|-0----3----0----3----1--(1)--|-0----3----0----3----1-------|
Ad|-0----3----0----3----1--(1)--|-0----3----0----3----1-------|
Dd|-0----3----0----3----1--(1)--|-0----3----0----3----1-------|

Eb|-----------------------------|-----------------------------|
Bb|-----------------------------|-----------------------------|
Gb|-----------------------------|-----------------------------|
Dd|-0----3----0----3----1--(1)--|-0----3----0----3----1-------|
Ad|-0----3----0----3----1--(1)--|-0----3----0----3----1-------|
Dd|-0----3----0----3----1--(1)--|-0----3----0----3----1-------|

Eb|-----------------------------|-----------------------------|
Bb|-----------------------------|-----------------------------|
Gb|-----------------------------|-----------------------------|
Dd|-0----3----0----3----1--(1)--|-0----3----0----3----1-------|
Ad|-0----3----0----3----1--(1)--|-0----3----0----3----1-------|
Dd|-0----3----0----3----1--(1)--|-0----3----0----3----1---0-0-|

Eb|-----------------------------|-----------------------------|
Bb|-----------------------------|-----------------------------|
Gb|-----------------------------|-----------------------------|
Dd|-0----3----0----3----1--(1)--|-0----3----0----3----1--(1)--|
Ad|-0----3----0----3----1--(1)--|-0----3----0----3----1--(1)--|
Dd|-0----3----0----3----1--(1)--|-0----3----0----3----1--(1)--|

Back to Chorus (play 4x)

Outro (03:27) "I wanna go home..."
Eb|-----------------------------|-----------------------------|
Bb|-----------------------------|-----------------------------|
Gb|-------------------------8---|-------------------------8---|
Dd|-0---0-0---0-0---0-0---0-8---|-0---0-0---0-0---0-0---0-8---|
Ad|-0---0-0---0-0---0-0---0-6---|-0---0-0---0-0---0-0---0-6---|
Dd|-0---0-0---0-0---0-0---0-8---|-0---0-0---0-0---0-0---0-8---|

Eb|-----------------------------|-----------------------------|
Bb|-----------------------------|-----------------------------|
Gb|-------------------------8---|-----------------------------|
Dd|-0---0-0---0-0---0-0---0-8---|-0------0------0------0------|
Ad|-0---0-0---0-0---0-0---0-6---|-0------0------0------0------|
Dd|-0---0-0---0-0---0-0---0-8---|-0------0------0------0------|

Eb|-----------------------------|
Bb|-----------------------------|
Gb|-----------------------------|
Dd|-0---------------------------|
Ad|-0---------------------------|
Dd|-0---------------------------|
Comments