Breaking Benjamin - Home Chords & Tabs

 

Home Chords & Tabs

Breaking Benjamin Chords & Tabs

Version: 1 Type: Tab 0 ratings
1 star 2 stars 3 stars 4 stars 5 stars
comments

Home Tab

   
Breaking Benjamin
Home
Tabbed by Austin Hern


Drop D Tuning, Down One Half Step (Db Ab Db Gb Bb Eb)

Intro
Db---------------1-------------
Ab---------------1-------------   x1
Db--0-00-00-00-0-1-------------

[ Tab from: http://www.guitartabs.cc/tabs/b/breaking_benjamin/home_tab.html ]
Db--0-00-00-00-0-1-------
Ab--0-00-00-00-0-1-------    x3   -------------
Db--0-00-00-00-0-1-------                     |
                                              |
Gb---------------5----                        |---- x2
Db--0-00-00-00-0-x----                        |
Ab--0-00-00-00-0-3---- x1                     |
Db--0-00-00-00-0------            -------------


Verse
All Slight Palm Muted

Db--0-3-0-3-1-----
Ab--0-3-0-3-1----- Play this also for the first chorus, not palm muted.
Db--0-3-0-3-1-----

Chorus

Eb--------------------
Bb-10--8---7---5------
Gb-9---7---6---4------
Db-7---5---4---2------
Ab-7---5---4---2------
Db-7---5---4---2------

Bridge 
All Slight Pinch Harmonics

Db--0-3-0-3-1----------
Ab---------------------
Db---------------------


That's all, enjoy.
Comments