Breaking Benjamin - Forget It Chords & Tabs

 

Forget It Chords & Tabs

Breaking Benjamin Chords & Tabs

Version: 1 Type: Tab 0 ratings
1 star 2 stars 3 stars 4 stars 5 stars
comments

Forget It Tab

*=Harmonics
Drop "D" tuning
Im giving you all the basic chord structures. I don't really feel like doing the timing,
but it's easy enough for you guys (or gals) to figure it out. If anyone feels like
emailing me for questions or threats or something my email is josephrm87@yahoo.com


Repeat this throughout most of the intro (untill he says "But my mind...")       
e--------I
b--------I
G-*12----I
D----*12-I
A--------I
D--------I

e------I-----------------------------------------------------I
b------I-----------------------------------------------------I
G------I-------5---------------6---------------6-------------I
D-1--5-I-1--5--5--6------2--6--6--7------2--6--6--7----------I
A-1--5-I-1--5--3--6------2--6--4--7------2--6--4--7----------I
D-1--5-I-1--5-----6------2--6-----7------2--6-----7----------I
         Its a Crime...  Evertime...     How Can I Believe...
[ Tab from: http://www.guitartabs.cc/tabs/b/breaking_benjamin/forget_it_tab.html ]
e-------------I
b-------------I
G-------6-----I
D-2--6--6--7--I
A-2--6--4--7--I
D-2--6-----7--I
  Forget It... 

e------------------I
b------------------I
G-------7----------I
D-3--7--7--8-------I
A-3--7--5--8-------I
D-3--7-----8-------I
  There's a place...

e------------------I
b------------------I
G-------8----------I
D-4--8--8--9-------I
A-4--8--6--9-------I
D-4--8-----9-------I
 Just stay away...

e----------------I
b----------------I
G-------9--------I
D-5--9--9--10----I
A-5--9--7--10----I
E-5--9-----10----I
  Its a crime...

e-------------------I  
b-------------------I
G--------10---------I
D--6--10-10--11-----I
A--6--10--8--11-----I
E--6--10-----11-----I
This riff is played through the rest of the song

This is played over the last riff..   End on..
e-11--11--11--11--13--13--13--13-----I--11--I
b---11--11--11--11--11--11--11--11---I--11--I
G------------------------------------I------I
D------------------------------------I------I
A------------------------------------I------I
D------------------------------------I------I
Comments