Breaking Benjamin - Forget It Chords & Tabs

 

Forget It Chords & Tabs

Breaking Benjamin Chords & Tabs

Version: 1 Type: Bass Tab 0 ratings
1 star 2 stars 3 stars 4 stars 5 stars
comments

Forget It Bass Tab

   
---------------------------------------------------------------------------
			     Forget It - Breaking Benjamin
-------------------------------------------------------------------------------

Tabbed By : Chris	
E-Mail: mich0365@umn.edu


Tuning: Standard

Verse 1
G|---------------------------------------------------------------------------|
D|---------------------------------------------------------------------------|
A|---------------------44444444----------------------------------------------|
E|---00000000-44444444----------55555555-------------------------------------|

Chorus 1
G|---------------------------------------------------------------------------|
D|---------------------------------------------------------------------------|
A|---------------------44444444---22------------------------------------------|
E|---00000000-44444444----------55---00000000---------------------------------|

"Forget it..."
G|---------------------------------------------------------------------------|
D|---------------------------------------------------------------------------|
A|---------------------44444444----------------------------------------------|
E|---00000000-44444444----------55555555-------------------------------------|
[ Tab from: http://www.guitartabs.cc/tabs/b/breaking_benjamin/forget_it_btab.html ]
Verse 2
G|---------------------------------------------------------------------------|
D|---------------------------------------------------------------------------|
A|---------------------55555555-66666666-------------------------------------|
E|---11111111-55555555-------------------------------------------------------|

G|---------------------------------------------------------------------------|
D|---------------------------------------------------------------------------|
A|----------------------66666666---------------------------------------------|
E|---22222222-666666666----------22222222------------------------------------|

Verse 3
G|---------------------------------------------------------------------------|
D|---------------------------------------------------------------------------|
A|---------------------77777777-88888888-------------------------------------|
E|---33333333-77777777-------------------------------------------------------|

Bridge
G|---------------------------------------------------------------------------|
D|---------------------------------------------------------------------------|
A|---------------------88888888-11-10-11-------------------------------------|
E|---44444444-88888888-------------------99999999----------------------------|

Outro
G|---------------------------------------------------------------------------|
D|---6655--------------------------------------------------------------------|
A|-------68------------------------------------------------------------------|
E|---------4-----------------------------------------------------------------|



| /  slide up
| \  slide down
| h  hammer-on
| p  pull-off
| ~  vibrato
| +  harmonic
| x  Mute note
Comments