Breaking Benjamin - Follow Chords & Tabs

 

Follow Chords & Tabs

Breaking Benjamin Chords & Tabs

Version: 1 Type: Bass Tab 0 ratings
1 star 2 stars 3 stars 4 stars 5 stars
comments

Follow Bass Tab

Band- Breaking Benjamin
Song- Follow

Intro

F |---------------------|-------------------------|
C |---------------------|-------------------------|
G |---------------------|-------1-----------------| 
C |-5-3-0-3--5-5-5-5-xx-|-5-3-0---5-5-5-5-xx-5-3-0|

F |---------------------|-------------------------|
C |---------------------|-------------------------|
G |---------------------|-------1-----------------| 
C |-5-3-0-3--5-5-5-5-xx-|-5-3-0---5-5-5-5-xx-03-05|

Verse

F |------------------|----------------|-------------------|--------------|
C |------------------|----------------|-------------------|--------------|
G |------------------|----------------|-------------------|--------------|
C|555555555-333333333|1111111111111-33|5-55------3-33-----|1-1-1-1-1-1--3|

F |------------------|----------------|-------------------|--------------|
C |------------------|----------------|-------------------|--------------|
G |------------------|----------------|-------------------|--------------|
C|555555555-333333333|1111111111111-33|5-55------3-33-----|1-1-1-1-1-1--3|

F |-------------------|----------------|-------------------|----------------|
C |-------------------|----------------|-------------------|----------------|
G |-------------------|-------------333|-------------------|-------------333|
C |555555555-333333333|1111111111111---|555555555-333333333|1111111111111---| 

F |-------------------|----------------|-------------------|----------------|
C |-------------------|----------------|-------------------|----------------|
G |-------------------|-------------333|-------------------|-------------333|
C |555555555-333333333|1111111111111---|555555555-333333333|1111111111111---| 

F |-------------------|------------------|
C |-------------------|------------------|
G |-------------------|------------------|
C |555555555-333333333|1111111111111-3-1-|

Chorus

F |-----------------|-----------------|-----------------|-----------------|
C |-----------------|-----------------|-----------------|-----------------|
G |-1-1-1-1-1-1-1-1-|-----------------|-----------------|-6-6-6-6-6-6-6-6-|
C |-----------------|-3-3-3-3-3-3-3-3-|-5-5-5-5-5-5-5-5-|-----------------|
[ Tab from: http://www.guitartabs.cc/tabs/b/breaking_benjamin/follow_btab.html ]
F |-----------------|-----------------|-----------------|-----------|
C |-----------------|-----------------|-----------------|-----------|
G |-1-1-1-1-1-1-1-1-|-----------------|-----------------|-6-6---6-6-|
C |-----------------|-3-3-3-3-3-3-3-3-|-5-5-5-5-5-5-5-5-|-----------|

Intro
Verse
Chorus

Break

F |-----------|----------------|-----------|----------------|
C |-----------|----------------|-----------|----------------|
G |-----------|----------------|-----------|----------------|
C |6-5-3-1-0-1|5555555500000000|6-5-3-1-0-1|5555555555553355|

F |-----------|----------------|-----------|----------------|
C |-----------|----------------|-----------|----------------|
G |-----------|----------------|-----------|----------------|
C |6-5-3-1-0-1|5555555500000000|6-5-3-1-0-1|5555555555553355|

Chorus

F |-----------------|-----------------|-----------------|-----------------|
C |-----------------|-----------------|-----------------|-----------------|
G |-----------------|-----------------|-----------------|-6-6-6-6-6-6-6-6-|
C |8\---------------|-3\--------------|-5-5-5-5-5-5-5-5-|-----------------|

F |-----------------|-----------------|-----------------|-----------------|
C |-----------------|-----------------|-----------------|-----------------|
G |-1-1-1-1-1-1-1-1-|-----------------|-----------------|-6-6-6-6-6-6-6-6-|
C |-----------------|-3-3-3-3-3-3-3-3-|-5-5-5-5-5-5-5-5-|-----------------|

F |-----------------|-----------------|-----------------|-----------------|
C |-----------------|-----------------|-----------------|-----------------|
G |-1-1-1-1-1-1-1-1-|-----------------|-----------------|-6-6-6-6-6-6-6-6-|
C |-----------------|-3-3-3-3-3-3-3-3-|-5-5-5-5-5-5-5-5-|-----------------|

F |-----------------|-----------------|-----------------|-----------|
C |-----------------|-----------------|-----------------|-----------|
G |-1-1-1-1-1-1-1-1-|-----------------|-----------------|-6-6---6-6-|
C |-----------------|-3-3-3-3-3-3-3-3-|-5-5-5-5-5-5-5-5-|-----------|

Outro

F |------------------|-----------------|
C |------------------|-----------------|
G |------------------|-----------------|
C |3--5--x-x3--5--x-x|3--5--x-x3--5-650| 

F |------------------|------------------------|
C |------------------|------------------------|
G |------------------|------------------------|
C |3--5--x-x3--5--x-x|3--5--x-x3--5-650--3--5\|
Comments