Breaking Benjamin - Firefly Chords & Tabs

 

Firefly Chords & Tabs

Breaking Benjamin Chords & Tabs

Version: 1 Type: Bass Tab 0 ratings
1 star 2 stars 3 stars 4 stars 5 stars
comments

Firefly Bass Tab

   
Band- Breaking Benjamin
Song- Firefly

Intro x2                                         end with
F-----------------------------------------|-11-|
C-----------------------------------------|----|
G-----------------------------------------|----|
C-10-0-0-0-10-0-0-0-10-0-0-3-0-0-0-10-0-0-|----|

Intro p2/outro
F-------------------------------------------------------|
C-------------------------------------------------------|
G-------------------------------------------------------|
C-10-0-0-0-10-0-0-0-10-0-0-3-0-0-0-10-0-0-0-10h12-10p0--|

F----------------------------------------------------------|
C----------------------------------------------------------|
G----------------------------------------------------------|
C-10-0-0-0-10-0-0-0-10-0-0-3-0-0-0-10-0-0-0-10h12-10\\0----|


Verse,i think im completely wrong on this part
F--------------------------------------------------------|
C--------------------------------------------------------|
G--------------------------------------------------------|
C-778989-101011121112-12121212121212121212121212121212/15|

F-------------------------------------------------------------------|
C-------------------------------------------------------------------|
G-------------------------------------------------------------------|
C-151515151515151515151515151515151614141414141414141414141414141414|

F-----------|
C-----------|
G-----------|
C-1312111213|  on 2nd verse,slide 13 down
[ Tab from: http://www.guitartabs.cc/tabs/b/breaking_benjamin/firefly_btab.html ]
Chorus
(\"Firefly,could you shine your light...)
F------------------------------------------------------------|
C------------------------------------------------------------|
G------------------------------------------------------------|
C-0-0-0-0-0-0---7-7-7-7-7-7--5-5-5-5-5-5--8-8-8-8-8-/10-1010-|

F---------------------------------------------------------------|
C---------------------------------------------------------------|
G---------------------------------------------------------------|
C-0-0-0-0-0-0---7-7-7-7-7-7--5-5-5--5-5-5--8-8-8-8--------------|

post chorus
F---------------------------------------------------------|
C---------------------------------------------------------|
G---------------------------------------------------------|
C-10-0-0-0-10-0-0-0-10-0-0-3-0-0-0-10-0-0-0-10h12-10\\0---|


Bridge
F-------------------------------------------------|
C-------------------------------------------------|
G-----------------5/7\\5-----------------5/7\\5---|
C-9-x-9-x-9-x-9-x-------9-x-9-x-9-x-9-x-----------|

F------------------------------------------------------|
C------------------------------------------------------|
G-----------------9-/10\\9-----------------9-/10\\9----|
C-5-x-5-x-5-x-5-x----------5-x-5-x-5-x-5-x-------------|

F-----------11^-----------------17^----------------------|
C--------------------------------------------------------|
G--------------------------------------------------------|
C-9--7--5---------99*-77*-55---------9--7--5-5-5-5-5-5---|
Comments