Breaking Benjamin - Diary Of Jane Chords & Tabs

 

Diary Of Jane Chords & Tabs

Breaking Benjamin Chords & Tabs

Version: 1 Type: Bass Tab

Diary Of Jane Bass Tab

   
“Diary of Jane” by: Breaking Benjamin
Tuning: A# F A# D
Tabbed By: Chris Gill(CGill1403@aol.com)

INTRO

start on the 3rd measure
D |-----------|-----------|-----------|-----------|
A#|--0--------|(0)----2-3-|-----------|-----------|
F |-----------|-----------|-0---------|(0)--------|
A#|-----------|-----------|-----------|-----------|

D |------------------|------------------|------------------|------------------|
A#|-0000000000000023-|-0000000000000000-|-0000000000000023-|-00000000---------|
F |------------------|------------------|------------------|-----------1--1--1|
A#|------------------|------------------|------------------|------------------|

D |-------------------------------|-------------------------------|
A#|-------------------------------|-------------------------------|
F |-----------------3-------------|-----------------3-------------|
A#|-0-0-5p0-0-7p5-0---0-0-8p0-3\2-|-0-0-5p0-0-7p5-0---0-0-8p0-3\2-|

D |-------------------------------|-------------------------|
A#|-------------------------------|-------------------------|
F |-----------------3-------------|-----------------1--1--1-|
A#|-0-0-5p0-0-7p5-0---0-0-8p0-3\2-|-0-0-5p0-0-7p5-0---------|

VERSE

D |------------------|----------------------|-------------|
A#|------------------|----------------------|-------------|
F |------------------|----------------------|-----------1-|
A#|-0-0--0--0-0--0-0-|-0-0--00-0-0-0-0--0-0-|-5-----0-0---|

D |------------------|----------------------|-------------|
A#|------------------|----------------------|-------------|
F |------------------|----------------------|-----------1-|
A#|-0-0--0--0-0--0-0-|-0-0--00-0-0-0-0--0-0-|-5-----0-0---|

CHORUS

D |----------------|----------------|----------------|----------------|
A#|--------0--0--0-|----------------|----------------|----------------|
F |----------------|-1---1--1--1--1-|----------------|-3---3--3--3--3-|
A#|-0---0----------|----------------|-3---3--3--3--3-|----------------|

D |------------------|------------------|
A#|------------------|------------------|
F |-1111111111111111-|-3333333333333333-|
A#|------------------|------------------|

PRE VERSE

D |-------------------------------|-------------------------|
A#|-------------------------------|-------------------------|
F |-----------------3-------------|-----------------1--1--1-|
A#|-0-0-5p0-0-7p5-0---0-0-8p0-3\2-|-0-0-5p0-0-7p5-0---------|

VERSE 2

D |------------------|----------------------|-------------|
A#|------------------|----------------------|-------------|
F |------------------|----------------------|-----------1-|
A#|-0-0--0--0-0--0-0-|-0-0--00-0-0-0-0--0-0-|-5-----0-0---|
[ Tab from: http://www.guitartabs.cc/tabs/b/breaking_benjamin/diary_of_jane_btab.html ]
D |------------------|----------------------|---------------|
A#|------------------|----------------------|---------------|
F |------------------|----------------------|-----------1-1-|
A#|-0-0--0--0-0--0-0-|-0-0--00-0-0-0-0--0-0-|-5-------------|

CHORUS 2

D |----------------|----------------|----------------|----------------|
A#|--------0--0--0-|----------------|----------------|----------------|
F |----------------|-1---1--1--1--1-|----------------|-3---3--3--3--3-|
A#|-0---0----------|----------------|-3---3--3--3--3-|----------------|

D |----------------|----------------|----------------|----------------|
A#|--------0--0--0-|----------------|----------------|----------------|
F |----------------|-1---1--1--1--1-|----------------|-3---3--3--3--3-|
A#|-0---0----------|----------------|-3---3--3--3--3-|----------------|

D |----------------|----------------|
A#|----------------|----------------|
F |-1111--1111--11-|-3333--3333--33-|
A#|----------------|----------------|

BRIDGE

D |------------------------|------------------------|------------------------|
A#|------------------------|------------------------|------------------------|
F |------------------------|------------------------|------------------------|
A#|-0-0--0-000-000-0-0-5/7-|-0-0--0-000-000-0-0-5/7-|-0-0--0-000-000-0-0-5/7-|

D |----------------------|---------------------|------------------------|
A#|----------------------|---------------------|------------------------|
F |----------------------|---------------------|------------------------|
A#|-00-0-0-8-7-0-5-7-3-2-|-3-3-3-3-3-5-5-5-5-5-|-0-0--0-000-000-0-0-5/7-|

D |------------------------|-------------------------|
A#|------------------------|-------------------------|
F |------------------------|-------------------------|
A#|-0-0--0-000-000-0-0-5/7-|-3-3-3-3-3-5-5-8-8-7-3\2-|

CHORUS 3

D |----------------|----------------|----------------|----------------|
A#|--------0--0--0-|----------------|----------------|----------------|
F |----------------|-1---1--1--1--1-|----------------|-3---3--3--3--3-|
A#|-0---0----------|----------------|-3---3--3--3--3-|----------------|

D |----------------|----------------|----------------|----------------|
A#|--------0--0--0-|----------------|----------------|----------------|
F |----------------|-1---1--1--1--1-|----------------|-3---3--3--3--3-|
A#|-0---0----------|----------------|-3---3--3--3--3-|----------------|

ENDING

D |-------------------------------|-------------------------------|
A#|-------------------------------|-------------------------------|
F |-----------------3-------------|-----------------3-------------|
A#|-0-0-5p0-0-7p5-0---0-0-8p0-3\2-|-0-0-5p0-0-7p5-0---0-0-8p0-3\2-|

D |-------------------------------|----------------------------|
A#|-------------------------------|----------------------------|
F |-----------------3-------------|-----------------1--1--1--0-|
A#|-0-0-5p0-0-7p5-0---0-0-8p0-3\2-|-0-0-5p0-0-7p5-0------------|