Breaking Benjamin - Breakdown Chords & Tabs

 

Breakdown Chords & Tabs

Breaking Benjamin Chords & Tabs

Version: 5 Type: Tab 0 ratings
1 star 2 stars 3 stars 4 stars 5 stars
comments

Breakdown Tab

intro (kinda hurts when first learning to play but, you get used to it)
|----------6--88--99---|
|-----9--9-------------|
|---5--5---------------|
|----------------------|
|----------------------|
|----------------------|

|----------6--8-8--9-9-------|
|-----9--9-----------------12|
|---5---5--------------------|
|----------------------------|
|----------------------------|
|----------------------------|
BREAKDOWN!
pre verse
|--------------------------------------------------------------|
|--------------------------------------------------------------|
|--------------------------------------------------------------|
|--0-00--13-12---------0-00-8------0-00--13-12---------0-00-7--|x2
|--0-00-------12-11----0-00-8------0-00-------12-11----0-00-7--|
|--0-00----------------0-00-8------0-00----------------0-00-7--|


verse
|---------6------------|
|----9--9--------------|
|--5--5----------------|
|----------------------|x2
|----------------------|
|----------------------|

|--6-------------------|
|---9---9--------------|
|-----5----------------|
|----------------------|
|----------------------|
|----------------------|

|---------6------------|
|----9--9--------------|
|--5--5----------------|
|----------------------|
|----------------------|
|----------------------|

pre chorus
[ Tab from: http://www.guitartabs.cc/tabs/b/breaking_benjamin/breakdown_tab_ver_5.html ]
|----------------------------------------------------|
|----------------------------------------------------|
|----------------------------------------------------|
|-00--0-00---33--3-33---88--8-88--8---55-5--88-------|x2
|-00--0-00---33--3-33---88--8-88--8---55-5--88-------|
|-00--0-00---33--3-33---88--8-88--8---55-5--88-------|

chorus
|--------------------------------------------------------------------------|
|--------------------------------------------------------------------------|
|--------------------------------------------------------------------------|
|-44444444-00000000--1212121212121212-1414141414141414---------------------|x2
|-44444444-00000000--1010101010101010-1212121212121212-0-1-0-1-3-----------|
|-44444444-00000000--1010101010101010-1212121212121212-0-1-0-1-3-----------|

|--------------------------------------------------------------|
|--------------------------------------------------------------|
|--------------------------------------------------------------|
|--0-00--13-12---------0-00-8------0-00--13-12---------0-00-0--|
|--0-00-------12-11----0-00-8------0-00-------12-11----0-00-0--|
|--0-00----------------0-00-8------0-00----------------0-00-0--|

repeat verse

repeat chorus

bridge/solo (sorry i don't know this part)

repeat chorus twice

then repeat as the outro you simply play the pre verse twice

thanks for pickin my tab, ive been workin on it for months to make it as good as possible.... KEEP ROCKIN!
Comments