Breaking Benjamin - Away Chords & Tabs

 

Away Chords & Tabs

Breaking Benjamin Chords & Tabs

Version: 2 Type: Bass Tab 0 ratings
1 star 2 stars 3 stars 4 stars 5 stars
comments

Away Bass Tab

   
“Away” by: Breaking Benjamin

Tabbed By : Chris Gill	
e-mail: CGill1403@aol.com

Tuning: C# G# C# F#

Intro/Verse
F#|-------------------------------------------------------------------|
C#|-------------------------------------------------------------------|
G#|-------------------------------------3-----3---------5-----5-------|
C#|--2--5--2--5--2-0-2--0--2--0--2-0-2-----2-----2-0-2-----2-----2-5--|

Chorus
F#|--------------------------------|
C#|--------------------------------|
G#|--3---3--3-3-3--3------------2--|
C#|-------------------5--5-4--0----|
[ Tab from: http://www.guitartabs.cc/tabs/b/breaking_benjamin/away_btab_ver_2.html ]
Bridge
F#|---------------------------------------------------------------------------------|
C#|---------------------------------------------------------------------------------|
G#|------------------------------------------------------------------------------0--|
C#|--0h2p0h2-5--0--2-----0h2p0h2-5--0--5--0—0h2p0h2-5--0--2-----0h2p0h2-5--0--5----|

Outro
F#|-------------------------------------------|
C#|-------------------------------------------|
G#|--------------------3\---------------------|
C#|--2-2-2-5-5-5-0-0-0------5-5-5-4-4-4-0-2\--|




| /  slide up
| \  slide down
| h  hammer-on
| p  pull-off
Comments