Breaking Benjamin - Alive Chords & Tabs

 

Alive Chords & Tabs

Breaking Benjamin Chords & Tabs

Version: 1 Type: Tab 0 ratings
1 star 2 stars 3 stars 4 stars 5 stars
comments

Alive Tab

Verse Gtr. 2
e --6-6--6-6-1-1--1-1-|
b --8-8--8-8-3-4--3-4-|
g --8-8--8-8-3-3--3-3-|
d --6-6--6-6-1-1--1-1-|
a --------------------|
E --------------------|

Verse Gtr. 1
e -----6--------- ------1-------|
b --------8------ -------4------|
g ---8----------- ----3---3-----|
d -7------------- --1-----------|
a --------------- --------------|
E --------------- --------------|

Chorus
e ----------------------------------|
b --8-88-8x-8-88-8x-4-44-4x-4-44-4x-|
g --8-88-8x-8-88-8x-3-33-3x-3-33-3x-|
d --8-88-8x-8-88-8x-3-33-3x-3-33-3x-|
a --6-66-6x-6-66-6x-1-11-1x-1-11-1x-|
E ----------------------------------|

Chorus(Gtr. 1 same as verse)
[ Tab from: http://www.guitartabs.cc/tabs/b/breaking_benjamin/alive_tab.html ]
Breakdown               (x6)     (x3)
e(------------------- -------- ---------|
b(------------------- -------- ---------|
g(--8888888888888888- 8-8-888- ---------|
d(--8888888888888888- 8-8-888- --666-66-|
a(--6666666666666666- 6-6-666- --666-66-|
E(--xxxxxxxxxxxxxxxx- -------- --444-44-|
  pm................                 ..

Solo x2
e ------------------------------------------|
b ------------------------------------------|
g -------888-10-10-10-12-888-10-10-10-12-12-|
d ------------------------------------------|
a ------------------------------------------|
E --14/6------------------------------------|

Solo Cont'd
e --------------------------------------------------|
b --------------------------------------------------|
g --13-12-12-13-12-12-13-12-12-13-12-12-15-15-15-15-|
d --------------------------------------------------|
a --------------------------------------------------|
E --------------------------------------------------|
Comments