Break Dust - Suck Chords & Tabs

 

Suck Chords & Tabs

Break Dust Chords & Tabs

Version: 1 Type: Tab 0 ratings
1 star 2 stars 3 stars 4 stars 5 stars
comments

Suck Tab

   
this songs called suck and its awesome i urge every1 to go get break dust's debut album.
drop d
intro *4
a-------3-2--------------3-2
d-2-0-2-------3-----2-0-2----3-2
after that do this
d-2-x-2-x-x-2-x-5-4
a-2-x-2-x-x-2-x-3-2
d-2-x-2-x-x-2-x----
verse
just palm mute the intro
chorus
d-2-2-2-2-2-2-2-2-5-5-5-5-5-5-5-5-5-5-5-5-4-4-4-4
a-2-2-2-2-2-2-2-2-5-5-5-5-5-5-5-5-3-3-3-3-2-2-2-2
d-2-2-2-2-2-2-2-2-5-5-5-5-5-5-5-5----------------
repeat all that over then do the bridge
d-2-2--2-2--2-2--2-2--5-5--5-5--5-5--5-5
a-2-2--2-2--2-2--2-2--5-5--5-5--5-5--5-5
d-2-2--2-2--2-2--2-2--5-5--5-5--5-5--5-5
and thats it just get it all in the right order and then rock on
if u want more info on break dust email me at korn1396@hotmail.com
[ Tab from: http://www.guitartabs.cc/tabs/b/break_dust/suck_tab.html ]
Comments