Bread - Mother Freedom Chords & Tabs

 

Mother Freedom Chords & Tabs

Bread Chords & Tabs

Version: 1 Type: Tab 0 ratings
1 star 2 stars 3 stars 4 stars 5 stars
comments

Mother Freedom Tab

   
-------------------------------------------------------------------------------
			     Mother Freedom - BREAD
-------------------------------------------------------------------------------
Tabbed by: m.williams

Tuning: standard

| /  slide up
| \  slide down
| h  hammer-on
| p  pull-off
| ~  vibrato
| +  harmonic
| x  Mute note

solo:

e|-----------------------------------------------------------------------------|
B|-----------------------------------------------------------------------------|
G|--------------------------------------------------------------------10-12~12-|
D|-10b11-------8-10b11-8--------------------------------------8h10-12----------|
A|----------------------10-8-10-8-----8-10-----10-8-10-8--8/10-----------------|
E|-------------------------------8/10------------------------------------------|
[ Tab from: http://www.guitartabs.cc/tabs/b/bread/mother_freedom_tab.html ]
e|------------------------------------------------15------15-13----------------|
B|-11---14b-14-13-11-----------------11/13--15b-------15b-------15-14-13-------|
G|------------------12-12\------10/12------------------------------------15----|
D|-----------------------------------------------------------------------------|
A|-------------------------10--------------------------------------------------|
E|-----------------------------------------------------------------------------|

e|-----------------------------------------------------------------------------|
B|-14b-14b-13-----------14b----------------------------------------------------|
G|------------15-12-15------15-12-15-12~---------------------------------------|
D|----------------------------------------10/12--12/15--15/17------------------|
A|-----------------------------------------------------------------------------|
E|-----------------------------------------------------------------------------|


e|-15-13--------------------------|
B|-------15-13----13--------------|
G|--------------15---15b-----12b--|
D|--------------------------------|
A|--------------------------------|
E|--------------------------------|

===============================================================================
Comments