Bread - Mother Freedom Chords & Tabs

 

Mother Freedom Chords & Tabs

Bread Chords & Tabs

Version: 1 Type: Bass Tab

Mother Freedom Bass Tab

Intro:

-------------|
-------------|
-------------|
-1-1-3-------|

Main riff:(repeat through all verses)

------------------------|
------------------------|
------1-1-1--3-3-3------|
-3-3-3------------1-1-3-|

Chorus:
[ Tab from: http://www.guitartabs.cc/tabs/b/bread/mother_freedom_btab.html ]
------------------------------------------------|
------------------------------------------------|
----------------1-1-1-1-1-1-1-1-3-3-3-3-3-3-3-3-|
-3-3-3-3-3-3-3-3--------------------------------|

-----------------|
-----------------|
-----------------|
-3-3-3-3-3-3-3-3-|

---------------------------------------------------|
-------------------------------------------------0-|
---------------------------------3-3-3-3-3-3-3-3---|
-3-3-3-3-3-3-3-3-1-1-1-1-1-1-1-1-------------------|

It's a really easy and fun song, and repeats that riff through the entire thing!