Bread - Make It With You Chords & Tabs

 

Make It With You Chords & Tabs

Bread Chords & Tabs

Version: 1 Type: Tab 1 rating
1 star 2 stars 3 stars 4 stars 5 stars
comments

Make It With You Tab

   
##################################################################################
# This file is the author's own work and represents their interpretation of the  #
# song. You may only use this file for private study, scholarship, or research.  #
##################################################################################

MAKE IT WITH YOU - BREAD

Intro   : E   F#m   E   F#m

Intro   : E   F#m   E   F#m

Verse 1 : E   F#m   E   F#m
          A   G#m   F#m B

Verse 2 : E   F#m   E   F#m
  A   G#m   C#  B
  E   F#m   E   A E F#m F#m

Verse 3 : E   F#m   E   F# 
          A   G#m   F#m B

Verse 4 : E   F#m   E   F#m
          A   G#m   C#  B
  E   F#m   E   A E F#m F#m
[ Tab from: http://www.guitartabs.cc/tabs/b/bread/make_it_with_you_tab.html ]
Solo: E   F#m   E   F#m
  E   B     F#m G#m  (Not too sure about the chords here)

Verse 4 : E   F#m   E   F#m
          A   G#m   C#  B
  E   F#m    E   F#m

Licks

E---------------------------2s4-7-4-2-------------------------
B-----------------------0-0------------------6-6s7s6-----4----
G------------------------------------------6---------6---4----
D-------2---2----------------------------6-------------6-4----
A---2h4---4----------------------------------------------2----
E--------------0----------------------------------------------


Solo

E-------------------------------------------------------------
B---4s5s4s5s4--------------------4s5s4s5s4--------------------
G-----------------4--------------------------4----------------
D--------------------6--4-6-6-------------------6--4-6-2------
A-------------------------------------------------------------
E-------------------------------------------------------------

E---------------------------------------
B--5-5-5-4---4-5-4----------------------
G----------6-------4---8s6s4------------
D----------------------------4-6-6------
A---------------------------------------
E---------------------------------------


Tabbed by Weng Keong
(wohorhor@hotmail.com)
Comments