Bread - If Chords & Tabs

 

If Chords & Tabs

Bread Chords & Tabs

Version: 6 Type: Tab 0 ratings
1 star 2 stars 3 stars 4 stars 5 stars
comments

If Tab

   
-------------------------------------------------------------------------------
			     Bread - If
-------------------------------------------------------------------------------

Tabbed by:JOHN (CHS RULZ! GO IRISH)

Tuning: Standard

You pluck this song (dont use a pick)

The tab I wrote in version 1 wasn't exactly Right im sorry to say

Hope this one helps, it IS the correct way.

ignore how to pluck the chorus,intro,verse and ending in version 1

ENJOY!!!!!!!!!!!! :-)	


NOTE: THIS SONG SOUNDS BEST ON ACOUSTIC guitar
I have also put the finger positions above almost each line to help.


(intro)


  EADGBE			EADGBE
     42			        4  4 	
		
E--------0-----0------|--------0-----0------|
B----2-----2-----2----|----0-----0-----0----|
G------4-----4--------|------4-----4--------|
D---------------------|---------------------|
A--0------------------|---------------------|
E---------------------|--4------------------|


  EADGBE			EADGBE
  3  4 			        2  2

E--------0------0-------|--------0-----0--------|
B----0-----0------0-----|----0-----0-----0------|
G------4-----4----------|------2-----2----------|
D-----------------------|-----------------------|
A-----------------------|-----------------------|
E--3--------------------|--2--------------------|


  EADGBE			EADGBE
  1  23			           22

E--------0-----0---|--------0-----0--------------|
B----3-----3-----3-|----2-----2-----2------------|
G------2-----2-----|------2-----2----------------|
D------------------|-----------------------------|
A------------------|-----------------------------|
E--1---------------|---0-------------------------|



   EADGBE		
   1  2 1

E---------1-----1-----|-----------0---------|
B-----0-----0-----0---|---------3-----------|
G-------2-----2-------|-------1-------------|
D---------------------|---------------------|
A---------------------|----2----------------|
E--1------------------|--0------------------|



	(All verses, same finger positions as intro)

  			
EADGBE			EADGBE
   42			4  4 	
		
E--------0-----0------|--------0-----0------|
B----2-----2-----2----|----0-----0-----0----|
G------4-----4--------|------4-----4--------|
D---------------------|---------------------|
A--0------------------|---------------------|
E---------------------|--4------------------|


  EADGBE			EADGBE
  3  4 			        2  2

E--------0------0-------|--------0-----0--------|
B----0-----0------0-----|----0-----0-----0------|
G------4-----4----------|------2-----2----------|
D-----------------------|-----------------------|
A-----------------------|-----------------------|
E--3--------------------|--2--------------------|


  EADGBE			EADGBE
  1  23			           22

E--------0-----0---|--------0-----0--------------|
B----3-----3-----3-|----2-----2-----2------------|
G------2-----2-----|------2-----2----------------|
D------------------|-----------------------------|
A------------------|-----------------------------|
E--1---------------|---0-------------------------|



   EADGBE		
   1  2 1
[ Tab from: http://www.guitartabs.cc/tabs/b/bread/if_tab_ver_6.html ]
E---------1-----1-----|
B-----0-----0-----0---|
G-------2-----2-------|
D---------------------|
A---------------------|
E--1------------------|


|-----------0--------------|
|---------3---3------------|
|-------1-------1----------|
|--------------------------|
|----2---------------------|
|--0-----------------------|


		(Chorus)

(Bar whole 2nd fret and put your ring finger on the 5th string, 4th fret)

E----------2-----2-------------------------|
B----2-------2-----2-----------------------|
G------2-------2---------------------------|
D------------------Repeat this part 3 times|
A--4---------------------------------------|
E------------------------------------------|

  EADGBE (D chord)		(C#M)
     232 

E---------2-----2-----|-------4------4------------|
B----3------3-----3---|---5-----5------5----------|
G------2------2-------|-----6-----6---------------|
D--0------------------|---------------------------|
A---------------------|---------------------------|
E---------------------|--4------------------------|



E---------2------2----|--------2------2-----------|
B----2------2------2--|----3-----3------3---------|
G------3------3-------|------4-----4--------------|
D---------------------|---------------------------|
A---------------------|---------------------------|
E--2------------------|--2------------------------|


E------------0-------|
B----------3---------|
G--------1-----------|
D--------------------|
A----2---------------|
E--0-----------------|



			(ENDING PART)



E-----------2--------2----|----------2--------2----|
B-----3--------3--------3-|----3--------3----------|
G--------2--------2-------|-------2--------2-------|
D-------------------------|----------------------6-|
A--2----------------------|------------------------|
E-------------------------|--0---------------------|


EADGBE			EADGBE
   42			4  4 	
		
E--------0-----0------|--------0-----0------|
B----2-----2-----2----|----0-----0-----0----|
G------4-----4--------|------4-----4--------|
D---------------------|---------------------|
A--0------------------|---------------------|
E---------------------|--4------------------|


  EADGBE		
  3  4 			        

E--------0------0-------|
B----0-----0------0-----|
G------4-----4----------|
D-----------------------|
A-----------------------|
E--3--------------------|

	   
|-----------0-----------------------------|
|---------2-------------------------------|
|-------1---------------------------------|
|-----2-----------------------------------|	
|---0-------------------------------------|
|-----------------------------------------|



LYRICS
_______


If a picture paints a thousand words,
Then why can't I paint you?
The words will never show the you I've come to know.
If a face could launch a thousand ships,
Then where am I to go?
There's no one home but you,
You're all that's left me too.

And when my love for life is running dry,
You come and pour yourself on me.

If a man could be two places at one time,
I'd be with you.
Tomorrow and today, beside you all the way.
If the world should stop revolving spinning slowly down to die,
I'd spend the end with you.
And when the world was through,
Then one by one the stars would all go out,
Then you and I would simply fly away
Comments