Bread - If Chords & Tabs

 

If Chords & Tabs

Bread Chords & Tabs

Version: 2 Type: Tab 1 rating
1 star 2 stars 3 stars 4 stars 5 stars
comments

If Tab

#----------------------------------PLEASE NOTE---------------------------------#
#This file is the author's own work and represents their interpretation of the #
#song. You may only use this file for private study, scholarship, or research. #
#------------------------------------------------------------------------------#

From: SLX6B@CC.USU.EDU
Subject: 
To: jamesb@animal-farm.nevada.edu
Message-Id: 
X-Vms-To: IN%"jamesb@nevada.edu"
Mime-Version: 1.0
Content-Type: TEXT/PLAIN; CHARSET=US-ASCII
Content-Transfer-Encoding: 7BIT

  "If" by Bread
tabbed by Mike Gray
[ Tab from: http://www.guitartabs.cc/tabs/b/bread/if_tab_ver_2.html ]
4/4 Moderato  "-" count as 16th note length
Intro:
|------0-----0---|------0-----0---|------0-----0---|------0-----0---|
|--0-----0-----0-|--0-----0-----0-|--0-----0-----0-|--0-----0-----0-|
|----6-----6-----|----4-----4-----|----4-----4-----|----2-----2-----|
|7---------------|6---------------|5---------------|4---------------|
|----------------|----------------|----------------|----------------|
|----------------|----------------|----------------|----------------|

|------0-----0---|------0-----0---|------1-----1---|
|--3-----3-----3-|--2-----2-----2-|--0-----0-----0-|
|----2-----2-----|----2-----2-----|----2-----2-----|
|3---------------|2---------------|0---------------|
|----------------|----------------|----------------|                
|----------------|----------------|----------------|

Lead-in I:Lead-in II:
|--------0-(hold)|                |--------0-------|
|------3---------|                |------3---3-----|
|----1-----------|                |----1-------1---|
|--2-------------|                |--2------------2|
|----------------|                |----------------|
|0---------------|                |0---------------|

Play:
*Intro/Lead-in I no lyrics
*Intro/Lead-in II TWICE 

Comments