Bread - Everything I Own Chords & Tabs

 

Everything I Own Chords & Tabs

Bread Chords & Tabs

Version: 3 Type: Tab 0 ratings
1 star 2 stars 3 stars 4 stars 5 stars
comments

Everything I Own Tab

Everything I Own Tab by Bread, www.Ultimate-Guitar.Com

brandon_c_shelley@hotmail.com

Everything I Own
Performed by Bread

Capo on 7th fret... tuning slightly sharp (listen to recording)
DO NOT PLAY STRINGS IF THEY ARE A DASH (-)

x--- = quarter note
/ = passing note
notice the spacing of the lyrics under each chord - this shows the correct time sync.
______________________________________________________________________________________

       |2---2---32--02--|2---2---32--02---|
       |3---3---3-3---3-|3---3---3-3---3--|
INTRO  |2-------2--2---2|2-------2--2---2-|
       |0---------------|0----------------|
       |----------------|-----------------|
       |----------------|-----------------|
______________________________________________________________________________________

   |2---2---2---2---         |2---2---2---2---|
   |3---3---2---2---         |3---3---3---3---|
   |2---2---2---2---         |4---4---4---4---|
   |0-------0-------         |4---4---0---0---|
   |----------------         |2---2---0---0---|
   |----------------         |----------------|
        You sheltered me from harm,       kept me

   |3---3---3---3---   |2---2/0-0---0---|
   |0---0-----------   |3---3---2---2---|
   |0---0---3---3---   |2---2---2---2---|
   |0---0---0---0---   |0---0---2---2---|
   |2---0-----------   |--------0---0---|
   |3---3---3---3---   |----------------|
    warm,       kept me warm.

   |2---2---2---2---       |2---2---2---2---|
   |3---3---2---2---       |0---0---3---3---|
   |2---2---2---2---       |4---4---4---4---|
   |0-------0-------       |4---4---0---0---|
   |----------------       |2---2---0---0---|
   |----------------       |----------------|
        You gave my life to me,         set me

   |3---3---3---3---  |2---2/0-0---0---|
   |0---0-----------  |3---3---2---2---|
   |0---0---3---3---  |2---2---2---2---|
   |0---0---0---0---  |0---0---2---2---|
   |2---0-----------  |--------0---0---|
   |3---3---3---3---  |----------------|
    free,       set me free.
______________________________________________________________________________________

   |3---3---3---3---       |0---0---0---0---|
   |0---0---0---0---       |2---2---3---3/2-|
   |0---0---0---0---       |2---2---2---2---|
   |2---2---0---0---       |2---2---2---2---|
   |2---2--------          |0---0---0---0---|
   |0---0---3---3---       |----------------|
    The finest years I ever knew...

   |3---3---3---3---             |0---0---3---3---|
   |0---0---0---0---             |2---2---0---0---|
   |0---0---0---0---             |2---2---0---0---|
   |2---2---0---0---             |2---2---0---0---|
   |2---2-----------             |0---0-----------|
   |0---0---3---3---             |--------3---3---|
    were all the years I had with you,    And I would give
______________________________________________________________________________________

       |2---2---3---3---  |0---0---3---3/2-|
       |3---3---0---0---  |2---2---0---0---|
CHORUS |2---2---0---0---  |2---2---0---0---|
       |0---0---2---2---  |2---2---0---0---|
       |--------2---2---  |0---0-----------|
       |--------0---0---  |--------3---3---|
        anything  I   own,    I'd  give up my

       |2---2---3---3---  |0---0---3---3/2-|
       |3---3---0---0---  |2---2---0---0---|
       |2---2---0---0---  |2---2---0---0---|
       |0---0---2---2---  |2---2---0---0---|
       |--------2---2---  |0---0-----------|
       |--------0---0---  |--------3---3---|
      life, my  heart,  my home.   I would give

       |2---2---3---3---  |0---0---3---3/2-|
       |3---3---0---0---  |2---2---0---0---|
       |2---2---0---0---  |2---2---0---0---|
       |0---0---2---2---  |2---2---0---0---|
       |--------2---2---  |0---0-----------|
       |--------0---0---  |--------3---3---|
        everything I  own,             just to
[ Tab from: http://www.guitartabs.cc/tabs/b/bread/everything_i_own_tab_ver_3.html ]
       |3---3---3---3---  |2---2---32--02---|
       |0---0---0---0---  |3---3---3-3---3--|
       |0---0---0---0---  |2-------2--2---2-|
       |0---0---0---0---  |0----------------|
       |----------------  |-----------------|
       |3---3---3---3---  |-----------------|
        have you     back again.
______________________________________________________________________________________

   |2---2---2---2---         |2---2---2---2---|
   |3---3---2---2---         |3---3---3---3---|
   |2---2---2---2---         |4---4---4---4---|
   |0-------0-------         |4---4---0---0---|
   |----------------         |2---2---0---0---|
   |----------------         |----------------|
        You taught me how to  love,       what it's

   |3---3---3---3---     |2---2/0-0---0---|
   |0---0-----------     |3---3---2---2---|
   |0---0---3---3---     |2---2---2---2---|
   |0---0---0---0---     |0---0---2---2---|
   |2---0-----------     |--------0---0---|
   |3---3---3---3---     |----------------|
    of,         what it's of

   |2---2---2---2---             |2---2---2---2---|
   |3---3---2---2---             |0---0---0---0---|
   |2---2---2---2---             |4---4---4---4---|
   |0-------0-------             |4---4---4---4---|
   |----------------             |2---2---2---2---|
   |----------------             |----------------|
      You never said too much but still you showed the way, and I

   |3---3---3---3---       |2---2---3---3/2-|
   |1---1---0---0---       |3---3---3---3---|
   |0---0---0---0---       |2---2---2---2---|
   |2---2---0---0---       |0---0---0---0---|
   |3---3-----------       |----------------|
   |--------3---3---       |----------------|
    knew,     from watching you
______________________________________________________________________________________

   |3---3---3---3---       |0---0---0---0---|
   |0---0---0---0---       |2---2---3---3/2-|
   |0---0---0---0---       |2---2---2---2---|
   |2---2---0---0---       |2---2---2---2---|
   |2---2--------          |0---0---0---0---|
   |0---0---3---3---       |----------------|
    The finest years I ever knew...

   |3---3---3---3---             |0---0---3---3---|
   |0---0---0---0---             |2---2---0---0---|
   |0---0---0---0---             |2---2---0---0---|
   |2---2---0---0---             |2---2---0---0---|
   |2---2-----------             |0---0-----------|
   |0---0---3---3---             |--------3---3---|
    were all the years I had with you,    And I would give
______________________________________________________________________________________

CHORUS
______________________________________________________________________________________


        |2---2---2---2---        |2---2---2---2---|
        |0---0---0---0---        |3---3---3---3---|
BRIDGE  |4---4---4---4---        |4---4---4---4---|
        |4---4---4---4---        |0---0---0---0---|
        |2---2---2---2---        |0---0---0---0---|
        |----------------        |----------------|
Is there someone you know, you're loving them so

        |2---2---2---2---       |2---2---2---2---|
        |0---0---0---0---       |0---0---0---0---|
        |0---0---0---0---       |0---0---0---0---|
        |0---0---0---0---       |0---0---0---0/0-|
        |2---2---2---2---       |2---2---2---2/0-|
        |3---3---3---3---       |3---3---3---3/2-|
     but taking them all for granted?        You may

        |3---3---3---3---             |3---3---3---3---|
        |0---0---0---0---             |3---3---3---3---|
        |0---0---0---0---             |4---4---4---4---|
        |2---2---2---2---             |0---0---0---0---|
        |2---2---2---2---             |----------------|
        |0---0---0---0---             |----------------|
         lose them one day,    someone takes them away

        |3---3---3---3---                |2---2---3---3---|
        |1---1---1---1---                |2---2---0---0---|
        |0---0---0---0---                |2---2---0---0---|
        |2---2---2---2---                |0---0---0---0---|
        |3---3---3---3---                |0---0-----------|
        |----------------                |--------3---3---|
and they don't hear the words you long to say. And I would give

CHORUS
CHORUS + (repeat last line) just to touch you once again.
Comments