Bread - Aubrey Chords & Tabs

 

Aubrey Chords & Tabs

Bread Chords & Tabs

Version: 2 Type: Tab 0 ratings
1 star 2 stars 3 stars 4 stars 5 stars
comments

Aubrey Tab

Song title:Aubrey
Artist: Bread
transcribed: MJS
[ Tab from: http://www.guitartabs.cc/tabs/b/bread/aubrey_tab_ver_2.html ]
INTRO:
|-----------10------------8-7--------0--2-3--5--0-----0--2---2------------|
|8-------0---------0----0-----8---3-----------------1-------1-------------|
|------0---------0--------------0-----------------2--------2--------------|
|----0---------0--------------------------------2--------0----------------|
|10---------9--------7---------------3------------------------------------|
|-------------------------------------------------------------------------|

Start of Verse:
|----3-------5---|----3-------2---|----0-------0---|----0--------0---|
|----3-------3---|----0-------0---|----1-------1---|----1--------1---|
|--4---4---4---4-|--0---0---0---0-|--0---0---0---0-|--0---0----0---0-|
|5-------4-------|2-------0-------|----------------|---------0-------|
|----------------|----------------|3-------2-------|0----------------|
|----------------|----------------|----------------|-----------------|

The rest of the song can be seen in the guitartabs.cc archive

-Enjoy
Comments