Bread - Aubrey Chords & Tabs

 

Aubrey Chords & Tabs

Bread Chords & Tabs

Version: 1 Type: Bass Tab 0 ratings
1 star 2 stars 3 stars 4 stars 5 stars
comments

Aubrey Bass Tab


This is my first tab, so yea its pretty easy! Just listen to the song!

Artist:Bread
Song:Aubrey


*Standard Tuning*

(4/4)
G|---------------------------------|
D|---------------------------------|
A|---------------------------------|
E|---5-----3-----0-----0-----------|
[ Tab from: http://www.guitartabs.cc/tabs/b/bread/aubrey_btab.html ]
(4/4)
G|---------------------------------|
D|---------------------------------|
A|---------------------------------|
E|---5-----3-----0-----0-----------|

(4/4)
G|---------------------------------|
D|---------------------------------|
A|---------------------------------|
E|---5-----3-----0-----0-----------|

(4/4)
G|---------------------------------|
D|---------------------------------|
A|---------------------------------|
E|---5-----3-----0-----0-----------|


the Bass part just repeat itself over and over through the whole song.
Comments