Breach Of Trust - An Offering Chords & Tabs

 

An Offering Chords & Tabs

Breach Of Trust Chords & Tabs

Version: 1 Type: Tab 0 ratings
1 star 2 stars 3 stars 4 stars 5 stars
comments

An Offering Tab

Song: An Offering
Band: Breach Of Trust
Album: Songs For Dying Nations
Submitted by: leaf1316@hotmail.com

This is the first time i ever tried to tab a song.
If you have any comments or corrections feel free to tell me.

rb - release bend
^  - bend up

Tune down 1/2 step

Intro and Verse
e----------------------------------------------------------
b----------0------0-----0---0-----------0------------------
g-----4---------4-----4------------4-------2-----2-------2-
d---------------------------------------------5-----4-4----
a--2-----2----2-----2-----2-----2-----2--------------------
e----------------------------------------------------------


Pre-Chorus (Guitar 1)
e--5-5-5-5-5-5-5-5-5-5-5-5-5-5-5-5-5-5-5-5-5-5-5-5--
b--3-3-3-3-3-3-3-3-3-3-3-3-3-3-3-3-3-3-3-3-3-3-3-3--
g---------------------------------------------------
d---------------------------------------------------  2x
a---------------------------------------------------
e---------------------------------------------------
[ Tab from: http://www.guitartabs.cc/tabs/b/breach_of_trust/an_offering_tab.html ]
(Guitar 2)(These are just the chords, not the strumming pattern)
e---------------------------------------------------
b---------------------------------------------------
g---------------------------------------------------
d-9-----------------------5-------------------------  2x
a-9-----------------------5-------------------------
e-7-----------------------3-------------------------


Chorus 1 (Here's the Chords,I'm too lazy to put down the strumming pattern)
e--------------------      -------------       -5^-5^-5^-5^-5rb-5-
b--------------------      -------------       -------------------
g--------------------      -------------       -------------------
d--7-----2--5--7-----  1x  --2--5--7----  3x   -------------------  1x 
a--7-----2--5--7-----      --2--5--7----       -------------------
e--5-----0--3--5-----      --0--3--5----       -------------------
                                               (Guitar 2)(only play first time)

Chorus 2 (Guitar 2) (Play at end of song with chorus 1)
e-----5----7--5---------5----7--5------
b-------5---------5-------5---------5--
g---7-----------7-----7-----------7----
d--------------------------------------  4x
a--------------------------------------
e--------------------------------------


Listen to song for the strummnig patterns and to put the parts together.
Comments