Brandy - I Wanna Be Down Chords & Tabs

 

I Wanna Be Down Chords & Tabs

Brandy Chords & Tabs

Version: 2 Type: Tab 0 ratings
1 star 2 stars 3 stars 4 stars 5 stars
comments

I Wanna Be Down Tab

   
I WANNA BE DOWN
-Brandy-

Lyrics & Music: Keith Crouch, Kipper Jones
From The Album: Brandy (1994)


Tabbed by Linus Olsson (Linuso@hotmail.com)


The chords in this song are just Bm (x24432) to Em (022000) all the way.
Try to play them on a guitar along with the song. It sounds nice!

Interlude:
==========

h = hammer on
b = bend
r = release bend
\ = slide down

e:------------------------------------------------------------|
B:--12------10--------------8---10----------------------------|
G:-----11------9----9---11----------11------7---7h9-----------|
D:---------------------------------------9-----------9--------|
A:------------------------------------------------------------|
E:------------------------------------------------------------|
[ Tab from: http://www.guitartabs.cc/tabs/b/brandy/i_wanna_be_down_tab_ver_2.html ]
e:-----------------------------9b10r9-----------------------------|
B:--12------10----------------------------10---12-----------------|
G:-----11------9----9---11--12---------11----------12---11--12\9--|
D:----------------------------------------------------------------|
A:----------------------------------------------------------------|
E:----------------------------------------------------------------|


Keyboard Chords:
================

e:----------------------|
B:-------------8--------|
G:---7---------9--------|
D:---9------------------|
A:----------------------|
E:----------------------|


Bass Line:
==========

G:-----------------------------------------|
D:-----------------------------------------|
A:--2--------2-2------------------------0--|
E:----------------------0--------0-0-------|
Comments