Branden Townsend - Never Find Me Chords & Tabs

 

Never Find Me Chords & Tabs

Branden Townsend Chords & Tabs

Version: 1 Type: Tab 0 ratings
1 star 2 stars 3 stars 4 stars 5 stars
comments

Never Find Me Tab

This is my song i wrote (its copywrited!!) Im not done yet
Its in the style of something like linkin Park
 
I'll put lyrics when im done writin them


My name is Branden Townsend, and email me at godfatha_187@hotmail
with your comments.
[ Tab from: http://www.guitartabs.cc/tabs/b/branden_townsend/never_find_me_tab.html ]
Intro:
clean tone electric     standard  tuning
strummed with pick
---------------------------------------------------------
-----------------------------------4---------------------
-------7---7---------3-----------5---5-------------------
-----7---7---7-----3---3-------5-------5-------5---------
---5-------------1-------1---3---------------5---5-------
-------------------------------------------5-------5-----


CHORUS:

-------------------------------------------------------------
-------------------------------------------------------------
---------------------------------5--5--5--5--5---------------
---7--7--7--7--7--3--3--3--3--3--5--5--5--5--5--5--5--5--5--5
---7--7--7--7--7--3--3--3--3--3--3--3--3--3--3--5--5--5--5--5
---5--5--5--5--5--1--1--1--1--1-----------------3--3--3--3--3
Happy strummin
Comments