Brand New - The Quiet Things That No One Ever Knows Chords & Tabs

 

The Quiet Things That No One Ever Knows Chords & Tabs

Brand New Chords & Tabs

Version: 5 Type: Tab 0 ratings
1 star 2 stars 3 stars 4 stars 5 stars
comments

The Quiet Things That No One Ever Knows Tab

   
Song Played In Dropped D Tuning
 
 intro

Guitar 1
e|-14-13-12-13----12-9-10-11-----14-13-12-13-----12-9-10-11-13-14/16-
b|------------12-------------9--------------12-----------------------
g|--------------------------------------------------------------------
d|--------------------------------------------------------------------
a|--------------------------------------------------------------------
d|0-------------1---------------0---------------1---------------------

 fig.1
e|------------------------------------------
a|-------------14-14------------------------
d|-10-11-10-11------11-11-------------------
g|------------------------------------------
b|------------------------------------------
d|------------------------------------------

 fig.2
e|------------------------------------------
a|-------------18-18------------------------
d|-14-15-14-15-------15-15------------------
g|------------------------------------------
b|------------------------------------------
d|------------------------------------------

 fig.3
e|------------------------------------------
a|------------------------------------14--10
d|-10-11-10-11-10-11-10-11-10-11-10-11--11--
g|------------------------------------------
b|------------------------------------------
d|------------------------------------------

 guitar 1 verse
e|------------------------------------
a|------------------------------------
d|------------------------------------<=========|check for strumming
g|5-5-5-5-7-7-7-7-3-3-3-3-4-4-4-4-----
b|5-5-5-5-7-7-7-7-3-3-3-3-4-4-4-4-----
d|5-5-5-5-7-7-7-7-3-3-3-3-4-4-4-4-----
pm. . . . . . . . . . . . . . . .

 guitar 2 verse
e|--------
b|3-3-3---
g|3-3-3---<-------| let each ring for a sec.
d|--------
a|--------
d|--------

 guitar 1 chorus
e|--------------------------------------
b|--------------------------------------
g|--------------------------------------
d|5-5-5-5-3-3-3-3-7-7-7-7-9-9-9-9-------
a|5-5-5-5-3-3-3-3-7-7-7-7-9-9-9-9------- Note:each chord strummed 16
d|5-5-5-5-3-3-3-3-7-7-7-7-9-9-9-9-------

guitar 2 chorus:
e|------------------------------------------
a|-------------14-14------------------------ X2
d|-10-11-10-11------11-11-------------------
g|------------------------------------------
b|------------------------------------------
d|------------------------------------------

e|------------------------------------------
a|-------------18-18------------------------ X2
d|-14-15-14-15-------15-15------------------
g|------------------------------------------
b|------------------------------------------
d|------------------------------------------

e|------------------------------------------------------------------------
b|------------------------------------------------------------------------
g|14-15-14-15-14-15-14-15-14-15-14-15-10-11-10-11-10-11-10-11-10-11-10-11
d|------------------------------------------------------------------------
a|------------------------------------------------------------------------
d|------------------------------------------------------------------------

e|------------------------------------------
b|-------------14-14------------------------
g|-10-11-10-11------11-10-------------------
d|------------------------------------------
a|------------------------------------------
d|------------------------------------------

e|---------------------------------------------------------
b|14-15-14-15-14-15-14-15-14-15-14-15-14-14----------------
g|-----------------------------------------11-10-----------
d|---------------------------------------------------------
a|---------------------------------------------------------
d|---------------------------------------------------------
[ Tab from: http://www.guitartabs.cc/tabs/b/brand_new/the_quiet_things_that_no_one_ever_knows_tab_ver_5.html ]
e|------------------------------------------
b|-------------14-14------------------------
g|-10-11-10-11------11-10-------------------
d|------------------------------------------
a|------------------------------------------
d|------------------------------------------

e|-----------------------------------------------
b|14-15-14-15-14-15-14-15-14-15-14-15-14-14------
g|-----------------------------------------11-10-
d|-----------------------------------------------
a|-----------------------------------------------
d|-----------------------------------------------

Bridge

Guitar 1
e|-14-13-12-13----12-9-10-11-----14-13-12-13-----12-9-10-11-13-14/16-
b|------------12-------------9--------------12-----------------------
g|--------------------------------------------------------------------
d|--------------------------------------------------------------------
a|--------------------------------------------------------------------
d|0-------------1---------------0---------------1---------------------

guitar 2

e|--------------------------------
b|--------------------------------
g|--------------------------------
d|5-5-5-5-3-3-3-3-7-7-7-7-9-9-9-9-
a|5-5-5-5-3-3-3-3-7-7-7-7-9-9-9-9-   <----Strum each 16 times
d|5-5-5-5-3-3-3-3-7-7-7-7-9-9-9-9-  
pm. . . . . . . . . . . . . . . .

Outro

guitar 1 chorus
e|--------------------------------------
b|--------------------------------------
g|--------------------------------------
d|5-5-5-5-3-3-3-3-7-7-7-7-9-9-9-9-------
a|5-5-5-5-3-3-3-3-7-7-7-7-9-9-9-9------- Note:each chord strummed 16
d|5-5-5-5-3-3-3-3-7-7-7-7-9-9-9-9-------

guitar 2 chorus:

e|------------------------------------------
a|-------------14-14------------------------ X2
d|-10-11-10-11------11-11-------------------
g|------------------------------------------
b|------------------------------------------
d|------------------------------------------

e|------------------------------------------
a|-------------18-18------------------------ X2
d|-14-15-14-15-------15-15------------------
g|------------------------------------------
b|------------------------------------------
d|------------------------------------------

e|------------------------------------------------------------------------
b|------------------------------------------------------------------------
g|14-15-14-15-14-15-14-15-14-15-14-15-10-11-10-11-10-11-10-11-10-11-10-11
d|------------------------------------------------------------------------
a|------------------------------------------------------------------------
d|------------------------------------------------------------------------

e|------------------------------------------
b|-------------14-14------------------------
g|-10-11-10-11------11-10-------------------
d|------------------------------------------
a|------------------------------------------
d|------------------------------------------

e|---------------------------------------------------------
b|14-15-14-15-14-15-14-15-14-15-14-15-14-14----------------
g|-----------------------------------------11-10-----------
d|---------------------------------------------------------
a|---------------------------------------------------------
d|---------------------------------------------------------

e|------------------------------------------
b|-------------14-14------------------------
g|-10-11-10-11------11-10-------------------
d|------------------------------------------
a|------------------------------------------
d|------------------------------------------

e|-----------------------------------------------
b|14-15-14-15-14-15-14-15-14-15-14-15-14-14------
g|-----------------------------------------11-10-
d|-----------------------------------------------
a|-----------------------------------------------
d|-----------------------------------------------


Order:
Intro 
Figure 1 X2
Figure 2 X2
Figure 3
Figure 1 X2
Figure 2 X2
Figure 3
Verse
Chorus
Verse
Chorus
Bridge
Chorus

Original Tablature by: Kypher Koska
Comments