Brand New - The Quiet Things That No One Ever Knows Chords & Tabs

 

The Quiet Things That No One Ever Knows Chords & Tabs

Brand New Chords & Tabs

Version: 3 Type: Tab 3 ratings
1 star 2 stars 3 stars 4 stars 5 stars
comments

The Quiet Things That No One Ever Knows Tab

Brand New - The Quiet Things That No One Ever Knows

Tabbed by Matt C
Email any comments and/or suggestions to Mattiesmallz01@yahoo.com


e|-------3p2---2------3p2---0-------3p2---2-------3p2---2---2h3-5--5----|
b|-----------3---3--------3---3---------3---3---------3---3-------------|
g|----------------------------------------------------------------------|
d|----------------------------------------------0-----------------------|
a|-------------------------------3--------------------------------------|
e|-----3------------0---------------------------------------------------|

e|----------------------------------------------------------------------|
b|-------------15-------------------15----------------------------------|
g|-11-12-11-12----12-11-12-12-11-12----12-11-12-------------------------|
d|----------------------------------------------------------------------|
a|----------------------------------------------------------------------|
e|----------------------------------------------------------------------|
[ Tab from: http://www.guitartabs.cc/tabs/b/brand_new/the_quiet_things_that_no_one_ever_knows_tab_ver_3.html ]
e|--------------15-------------------15---------------------------------|
b|--12-13-12-13----13-12-13-13-12-13----13-12-13------------------------|
g|----------------------------------------------------------------------|
d|----------------------------------------------------------------------|
a|----------------------------------------------------------------------|
e|----------------------------------------------------------------------|

umm yah repeat those two a couple times or so w/e

e|----------------------------------------------------------------------|
b|----------------------------------------------------------------------|
g|-----------------------------5--------7-------------------------------|
d|-5-5-------5--------2--------5-(x16)--7-(x16)-------------------------|
a|-5-5--10/--5-(x16)--2-(x16)--3--------5-------------------------------|
e|-3-3-------3--------0-------------------------------------------------|
   . .       .        .        .        . 

/ = that means slide down
3p2 = that means pull off (3 pull off 2)
2h3 = that means hammer on (2 hammer on 3)
. = palm mute (rest palm on bridge)
Comments