Brand New - The Quiet Things That No One Ever Knows Acoustic Chords & Tabs

 

The Quiet Things That No One Ever Knows Acoustic Chords & Tabs

Brand New Chords & Tabs

Version: 2 Type: Tab 0 ratings
1 star 2 stars 3 stars 4 stars 5 stars
comments

The Quiet Things That No One Ever Knows Acoustic Tab

Brand New - The Quiet THings THat No One Ever Knows ( acoustic )
Tuned Down half Step

Intro

guitar 1

e|------3p2-----2-----|-----3p2-----0----|--
B|-----------3-----3--|----------3-----3-|--
G|--------------------|------------------|--
D|--------------------|------------------|--
A|--------------------|------------------|--
E|--3-----------------|--0---------------|--

e|------3p2-----2-----|-----3p2-----0----|--
B|-----------3-----3--|----------3-----3-|--
G|--------------------|------------------|--
D|--------------------|--0---------------|--
A|--3-----------------|------------------|--
E|--------------------|------------------|--

verse/Chorus 

this is the basic strum pattern but, you can
figure it out yourself.

Guitar 2 ( repeat 2x )

e|--3-3-------------3---|--0-0-------------0--|
B|--3-3---3-----3---3---|--0-0-0---------0-0--|
G|--0-0-----0-----0-0---|--0-0---0-----0---0--|
D|--0-0-0-----0-----0---|--2-2-----2-2-----2--|
A|--x-x-------------x---|--2-2-------------2--|
E|--3-3-------------3---|--0-0-------------0--|

e|--0-0-------------0--|--2-2-2h3-2-2h3-2-2h3-|
B|--1-1-1---------1-1--|--3-3-3---3-3---3-3---|
G|--0-0---0-----0---0--|--2-2-2---2-2---2-2---|
D|--2-2-----2-2-----2--|--0-0-0---0-0---0-0---|
A|--3-3-------------3--|--0-0-----------------|
E|--0-0-------------0--|--0-0-----------------|

end it with a....

e|--3-3--|
B|--3-3--|
G|--0-0--|
D|--0-0--|
A|--x-x--|
E|--3-3--|

Guitar 1 (repeat however many times)

e|---------------------|---------------------|
B|--------15-------15--|--------15-------15--|
G|--11h12----11h12-----|--12h13----12h13-----|
D|---------------------|---------------------|
A|---------------------|---------------------|
E|---------------------|---------------------|-


Bridge ( repeat as many times as it goes )

Guitar 2
[ Tab from: http://www.guitartabs.cc/tabs/b/brand_new/the_quiet_things_that_no_one_ever_knows_acoustic_tab_ver_2.html ]
e|--3-3-------------3---|--0-0-------------0--|
B|--3-3---3-----3---3---|--0-0-0---------0-0--|
G|--0-0-----0-----0-0---|--0-0---0-----0---0--|
D|--0-0-0-----0-----0---|--2-2-----2-2-----2--|
A|--x-x-------------x---|--2-2-------------2--|
E|--3-3-------------3---|--0-0-------------0--|

e|--0-0-------------0--|--2-2-2h3-2-2h3-2-2h3-|
B|--1-1-1---------1-1--|--3-3-3---3-3---3-3---|
G|--0-0---0-----0---0--|--2-2-2---2-2---2-2---|
D|--2-2-----2-2-----2--|--0-0-0---0-0---0-0---|
A|--3-3-------------3--|--0-0-----------------|
E|--0-0-------------0--|--0-0-----------------|

guitar 1

e|------3p2-----2-----|-----3p2-----0----|--
B|-----------3-----3--|----------3-----3-|--
G|--------------------|------------------|--
D|--------------------|------------------|--
A|--------------------|------------------|--
E|--3-----------------|--0---------------|--

e|------3p2-----2-----|-----3p2-----0----|--
B|-----------3-----3--|----------3-----3-|--
G|--------------------|------------------|--
D|--------------------|--0---------------|--
A|--3-----------------|------------------|--
E|--------------------|------------------|--

e|--3h2---3\5-5-------|
B|------3-------------|
G|--------------------|
D|--------------------|
A|--------------------|
E|--------------------|

Outro

guitar 2 ( repeat however many times )

e|--3-3-3-3-3-3--|--0-0-0-0-0-0--|
B|--3-3-3-3-3-3--|--0-0-0-0-0-0--|
G|--0-0-0-0-0-0--|--0-0-0-0-0-0--|
D|--0-0-0-0-0-0--|--2-2-2-2-2-2--|
A|--x-x-x-x-x-x--|--2-2-2-2-2-2--|
E|--3-3-3-3-3-3--|--0-0-0-0-0-0--|

e|--0-0-0-0-0-0--|--2-2-2h3-2-2h3-2--|
B|--1-1-1-1-1-1--|--3-3-3---3-3---3--|
G|--0-0-0-0-0-0--|--2-2-2---2-2---2--|
D|--2-2-2-2-2-2--|--0-0-0---0-0---0--|
A|--3-3-3-3-3-3--|--0-0-0---0-0---0--|
E|--0-0-0-0-0-0--|--0-0-0---0-0---0--|

end
e|--3--|
B|--3--|
G|--0--|
D|--0--|
A|--x--|
E|--3--|


Guitar 1 (repeat however many times)

e|---------------------|---------------------|
B|--------15-------15--|--------15-------15--|
G|--11h12----11h12-----|--12h13----12h13-----|
D|---------------------|---------------------|
A|---------------------|---------------------|
E|---------------------|---------------------|

e|---------------------|
B|--------10-8--8/3----|
G|--11h12--------------|
D|---------------------|
A|---------------------|
E|---------------------|
Comments