Brand New - The Quiet Things That Know One Ever Knows Chords & Tabs

 

The Quiet Things That Know One Ever Knows Chords & Tabs

Brand New Chords & Tabs

Version: 1 Type: Tab 2 ratings
1 star 2 stars 3 stars 4 stars 5 stars
comments

The Quiet Things That Know One Ever Knows Tab

   
I think the last tabs that someone posted might be wrong (no offense) but I don’t know for sure. This sounds right anyways. Tune your guitar down ½ step.


p=pull
h=hold
/=slide up
=slide down
()=let note ring

INTRO
e--3p2-2------3p2-0h2--------3p2-2------3p2-2---2/5-5-----
B-----2-2------------2----------2-2--------2-2------------
G---------------------------------------------------------
D-------------------------------------0-------------------
A--------------------------3------------------------------
E-3-------0-----------------------------------------------

CHORDS
G-------4--6--------
D-4--1--4--6--------
A-4--1--2--4--------
E-2--0--------------
[ Tab from: http://www.guitartabs.cc/tabs/b/brand_new/the_quiet_things_that_know_one_ever_knows_tab.html ]
LEAD
e---------9------    -----------14------------   
B--6-7-6-7-7-6-7 X2 -11-12-11-12--12-11-12-11 X2 

Do the lead 3 times while the chords are being played.

THINGY
D--4-4---114----
A--4-4-----------
E--2-2-----------

THINGY 2
D--4-4-3-3
A--4-4-3-3 X3
E---------

Order:

INTRO clean
0:13 (CHORDS distorted) LEAD 
0:36 THINGY 
0:38 (CHORDS palm muted) 0:50 THINGY 2
1:01 (CHORDS distorted) LEAD
1:25 THINGY
1:26 (CHORDS palm muted) 1:39 THINGY 2
1:50 (CHORDS distorted) LEAD
2:13 INTRO X2 (slightly distorted maybe?)
2:37 (CHORDS palm muted) and INTRO X a few
3:01 (CHORDS distorted) LEAD
END THINGY  e—3-2-(3) or something

That’s about it. I hope you can understand it.
Questions? Comments? Changes?
email me at mbbs_so_cool@hotmail.com
Comments