Brand New - The No Seatbelt Song Chords & Tabs

 

The No Seatbelt Song Chords & Tabs

Brand New Chords & Tabs

Version: 2 Type: Tab 0 ratings
1 star 2 stars 3 stars 4 stars 5 stars
comments

The No Seatbelt Song Tab

-------------------------------------------------------------------------------
			     the no seatbelt song - brand new
-------------------------------------------------------------------------------
Tabbed by:hecky20
Email:jsh15@aol.com
this is a way of playing both guitars on one guitar. its a little tricky but 
listen to the song for the rythm and you should have no problem 

Tuning:drop D

e|-intro/verse----------------------------------------------------|
B|----------------------------------------------------------------|
G|---------------------8\7-7---------------------------8\7-7------|
D|---10-15\12-12  --6--6-6-6-----------8-13\12-12----6-6-6-6------|
A|--10--10-10-10---6---6-6-6---<2x----8--8--8--8----6--6-6-6------|
d|-10---10-10 10--6----6-6-6---------8---8--8 -8---6---6-6 6------|

e|----------------------------------------------------------------|
B|----------------------------------------------------------------|
G|----------------------10----------------------------------------|
D|----8--13\12-12----6--6-----------------------------------------|
A|---8---8--8--8----6---6-----------------------------------------|
d|--8----8--8--8---6----6-----------------------------------------|

[ Tab from: http://www.guitartabs.cc/tabs/b/brand_new/the_no_seatbelt_song_tab_ver_2.html ]
e|-chorus---------------------------------------------------------|
B|----------------------------------------------------------------|
G|--12 12 12 12 12-12 12 12\8 8 8 8 8 8 8 8-----------------------|
D|--12 12 12 12 12 12 12 12\6 6 6 6 6 6 6 6----<4x----------------|   
A|--10 10 10 10 10-10 10 10\6 6 6 6 6 6 6 6-----------------------|   
d|--10 10 10 10 10 10 10 10\6 6 6 6 6 6 6 6-----------------------|


e|----------------------------------------------------------------|
B|----------------------------------------------------------------|
G|-12 12 12 12 12 12 12 12----------------------------------------|
D|-12 12 12 12 12 12 12 12----------------------------------------|
A|-10 10 10 10 10 10 10 10----------------------------------------|
d|-10 10 10 10 10 10 10 10----------------------------------------|





e|--muted part----------------------------------------------------|
B|----------------------------------------------------------------|
G|----------------------------------------------------------------|
D|----------------------------------------------------------------|
A|----10-10 8-10----8 10 8----13 13 13 13   13 13 13----8 8-10 8--|
d|----10-10-8 10----8 10 8----13 13 12 13-- 12 13 12----8 8 10 8--|

e|----------------------------------------------------------------|
B|----------------------------------------------------------------|
G|----------------------------------------------------------------|
D|----------------------------------------------------------------|
A|--8 10 8  6 6 8 6   6 8 6---<2x---------------------------------|
d|--8 10 8  6 6 8 6   6 8 6---------------------------------------|
Comments