Brand New - The Boy Who Blocked His Own Shot Chords & Tabs

 

The Boy Who Blocked His Own Shot Chords & Tabs

Brand New Chords & Tabs

Version: 4 Type: Tab 0 ratings
1 star 2 stars 3 stars 4 stars 5 stars
comments

The Boy Who Blocked His Own Shot Tab

~Standard Tuning, Half Step Down~

Intro.
e--3-3-3-3-3-3-3-3-3-3-3-3-3-3-3--10-10-10-10-10-10-10-10-10-10-10--|
B--0-0-0-0-0-0-0-1-1-1-1-0-0-0-0--0--0--0--0--0--0--0--0--0--0--0---|
G--0-0-0-0-0-0-0-0-0-0-0-0-0-0-0--0--0--0--0--0--0--0--7--7--7--7---|
D--0-0-0-0-0-0-0-0-0-0-0-0-0-0-0--0--0--0--0--0--0--0--0--0--0--0---|
A--2-2-2-2-2-2-2-2-2-2-2-2-2-2-2--9--9--9--9--9--9--9--9--9--9--9---|
E--3-3-3-3-3-3-3-3-3-3-3-3-3-3-3--10-10-10-10-10-10-10-10-10-10-10--|

e--10-10-10-10--3-3-3-3-3-3-3-3--|
B--0--0--0--0---0-0-0-0-0-0-0-3--|
G--0--0--0--0---0-0-0-0-0-0-0-0--|
D--7--7--7--7---2-2-2-2-2-2-2-2--|
A--9--9--9--9---3-3-3-3-3-3-3-3--|
E--10-10-10-10--X-X-X-X-X-X-X-X--|

Verse (X4)
e--3-3-3-3-3-3-3-3-3-3-3-3-3-3-3--10-10-10-10-10-10-10-10-10-10-10--|
B--0-0-0-0-0-0-0-1-1-1-1-0-0-0-0--0--0--0--0--0--0--0--0--0--0--0---|
G--0-0-0-0-0-0-0-0-0-0-0-0-0-0-0--0--0--0--0--0--0--0--7--7--7--7---|
D--0-0-0-0-0-0-0-0-0-0-0-0-0-0-0--0--0--0--0--0--0--0--0--0--0--0---|
A--2-2-2-2-2-2-2-2-2-2-2-2-2-2-2--9--9--9--9--9--9--9--9--9--9--9---|
E--3-3-3-3-3-3-3-3-3-3-3-3-3-3-3--10-10-10-10-10-10-10-10-10-10-10--|

e--10-10-10-10--3-3-3-3-3-3-3-3-3-3-3-3-3-3--|
B--0--0--0--0---0-0-0-0-0-0-0-3-3-3-3-3-3-3--|
G--0--0--0--0---0-0-0-0-0-0-0-0-0-0-0-0-0-0--|
D--7--7--7--7---2-2-2-2-2-2-2-2-2-2-2-2-2-2--|
A--9--9--9--9---3-3-3-3-3-3-3-3-3-3-3-3-3-3--|
E--10-10-10-10--X-X-X-X-X-X-X-X-X-X-X-X-X-X--|

Chorus
e--10----5----3--3--3-3-3-3--3-3--3-3-3-3----10----5----3--|
B--0-----0----0--0--0-0-0-3--3-3--3-3-3-3----0-----0----0--|
G--0-----0----0--0--0-0-0-0--0-0--0-0-0-0----0-----0----0--|
D--9-----4----2--2--2-2-2-2--2-2--2-2-2-2----9-----4----2--|
A--10----5----3--3--3-3-3-3--3-3--3-3-3-3----10----5----3--|
E--X-----X----X--X--X-X-X-X--X-X--X-X-X-X----X-----X----X--|

Bridge
e--3-3-3-3-3-3-3-3-3-3-3-3-3-3-3--10-10-10-10-10-10-10-10-10-10-10--|
B--0-0-0-0-0-0-0-1-1-1-1-0-0-0-0--0--0--0--0--0--0--0--0--0--0--0---|
G--0-0-0-0-0-0-0-0-0-0-0-0-0-0-0--0--0--0--0--0--0--0--7--7--7--7---|
D--0-0-0-0-0-0-0-0-0-0-0-0-0-0-0--0--0--0--0--0--0--0--0--0--0--0---|
A--2-2-2-2-2-2-2-2-2-2-2-2-2-2-2--9--9--9--9--9--9--9--9--9--9--9---|
E--3-3-3-3-3-3-3-3-3-3-3-3-3-3-3--10-10-10-10-10-10-10-10-10-10-10--|
[ Tab from: http://www.guitartabs.cc/tabs/b/brand_new/the_boy_who_blocked_his_own_shot_tab_ver_4.html ]
e--10-10-10-10----3-3-3-3-3-3-3-3-3-3-3-3-3-3--|
B--0--0--0--0-----0-0-0-0-0-0-0-3-3-3-3-3-3-3--|
G--0--0--0--0-----0-0-0-0-0-0-0-0-0-0-0-0-0-0--|
D--7--7--7--7-----2-2-2-2-2-2-2-2-2-2-2-2-2-2--|
A--9--9--9--9-----3-3-3-3-3-3-3-3-3-3-3-3-3-3--|
E--10-10-10-10----X-X-X-X-X-X-X-X-X-X-X-X-X-X--|

Verse (X4)
e--3-3-3-3-3-3-3-3-3-3-3-3-3-3-3--10-10-10-10-10-10-10-10-10-10-10--|
B--0-0-0-0-0-0-0-1-1-1-1-0-0-0-0--0--0--0--0--0--0--0--0--0--0--0---|
G--0-0-0-0-0-0-0-0-0-0-0-0-0-0-0--0--0--0--0--0--0--0--7--7--7--7---|
D--0-0-0-0-0-0-0-0-0-0-0-0-0-0-0--0--0--0--0--0--0--0--0--0--0--0---|
A--2-2-2-2-2-2-2-2-2-2-2-2-2-2-2--9--9--9--9--9--9--9--9--9--9--9---|
E--3-3-3-3-3-3-3-3-3-3-3-3-3-3-3--10-10-10-10-10-10-10-10-10-10-10--|

e--10-10-10-10--3-3-3-3-3-3-3-3-3-3-3-3-3-3--|
B--0--0--0--0---0-0-0-0-0-0-0-3-3-3-3-3-3-3--|
G--0--0--0--0---0-0-0-0-0-0-0-0-0-0-0-0-0-0--|
D--7--7--7--7---2-2-2-2-2-2-2-2-2-2-2-2-2-2--|
A--9--9--9--9---3-3-3-3-3-3-3-3-3-3-3-3-3-3--|
E--10-10-10-10--X-X-X-X-X-X-X-X-X-X-X-X-X-X--|

Chorus
e--10----5----3--3--3-3-3-3--3-3--3-3-3-3----10----5----3--|
B--0-----0----0--0--0-0-0-3--3-3--3-3-3-3----0-----0----0--|
G--0-----0----0--0--0-0-0-0--0-0--0-0-0-0----0-----0----0--|
D--9-----4----2--2--2-2-2-2--2-2--2-2-2-2----9-----4----2--|
A--10----5----3--3--3-3-3-3--3-3--3-3-3-3----10----5----3--|
E--X-----X----X--X--X-X-X-X--X-X--X-X-X-X----X-----X----X--|

Bridge (X3)
e--3-3-3-3-3-3-3-3-3-3-3-3-3-3-3--10-10-10-10-10-10-10-10-10-10-10--|
B--0-0-0-0-0-0-0-1-1-1-1-0-0-0-0--0--0--0--0--0--0--0--0--0--0--0---|
G--0-0-0-0-0-0-0-0-0-0-0-0-0-0-0--0--0--0--0--0--0--0--7--7--7--7---|
D--0-0-0-0-0-0-0-0-0-0-0-0-0-0-0--0--0--0--0--0--0--0--0--0--0--0---|
A--2-2-2-2-2-2-2-2-2-2-2-2-2-2-2--9--9--9--9--9--9--9--9--9--9--9---|
E--3-3-3-3-3-3-3-3-3-3-3-3-3-3-3--10-10-10-10-10-10-10-10-10-10-10--|

e--10-10-10-10--3-3-3-3-3-3-3-3-3-3-3-3-3-3--|
B--0--0--0--0---0-0-0-0-0-0-0-3-3-3-3-3-3-3--|
G--0--0--0--0---0-0-0-0-0-0-0-0-0-0-0-0-0-0--|
D--7--7--7--7---2-2-2-2-2-2-2-2-2-2-2-2-2-2--|
A--9--9--9--9---3-3-3-3-3-3-3-3-3-3-3-3-3-3--|
E--10-10-10-10--X-X-X-X-X-X-X-X-X-X-X-X-X-X--|

Outro.
e--3----5-5-5-5-5-5-5--3-3-3-3-3-3-3-3-3-3-3-3-3-3--3-3-3-3-3-3-3--|
B--0----0-0-0-0-0-0-0--0-0-0-0-0-0-0-3-3-3-3-3-3-3--0-0-0-0-0-0-0--|
G--0----0-0-0-0-0-0-0--0-0-0-0-0-0-0-0-0-0-0-0-0-0--0-0-0-0-0-0-0--|
D--0----4-4-4-4-4-4-4--2-2-2-2-2-2-2-2-2-2-2-2-2-2--0-0-0-0-0-0-0--|
A--2----5-5-5-5-5-5-5--3-3-3-3-3-3-3-3-3-3-3-3-3-3--2-2-2-2-2-2-2--|
E--3----X-X-X-X-X-X-X--X-X-X-X-X-X-X-X-X-X-X-X-X-X--3-3-3-3-3-3-3--|

e--5-5-5-5-5-5-5--3----3--|
B--0-0-0-0-0-0-0--0----3--|
G--0-0-0-0-0-0-0--0----0--|
D--4-4-4-4-4-4-4--2----2--|
A--5-5-5-5-5-5-5--3----3--|
E--X-X-X-X-X-X-X--X----X--|
Comments