Brand New - The Boy Who Blocked His Own Shot Chords & Tabs

 

The Boy Who Blocked His Own Shot Chords & Tabs

Brand New Chords & Tabs

Version: 1 Type: Tab 2 ratings
1 star 2 stars 3 stars 4 stars 5 stars
comments

The Boy Who Blocked His Own Shot Tab

Band: Brand New
Song: The Boy Who Blocked His Own Shot
Album: Deja Entendu
Tabbed By: Frank T.
E-Mail: for_the_workforce182@myway.com
Tuning: Standard/Tune 1/2 a step down
        
        



Gutiar One (GTR I) Electric/Distortion
Guitar Two (GTR II)Acoustic


______________________
/=Slide
()=Hold Note/Let Ring
______________________







GTR II
Acoustic:
Intro:
E-----------------------------------------------------------------------------
B--00000000---------00000000-----------------------00000000000000-(3)---------
G--00000000-5555555-00000000----00000000-00077700--00000000000000-(0)---------
D--00000000-0000000-00000000----00000000-77700077--55555555555555-(5)---------
A--55555555-0000000-00000000-0--99999999-99999999--33333333333333-(3)---------
E--33333333-3333333-33333333-0--00000000-00000000-----------------------------


GTR II 
Verse:
E---------------------------------------------------------------------------------
B--00000000---------00000000-----------------------00000000000000-333333333333----
G--00000000-5555555-00000000----00000000-00077700--00000000000000-000000000000----
D--00000000-0000000-00000000----00000000-77700077--55555555555555-555555555555----
A--55555555-0000000-00000000-0--99999999-99999999--33333333333333-333333333333----
E--33333333-3333333-33333333-0--00000000-00000000---------------------------------


Chorus:
E-------------------------------------------------------
B---------------------33333333333333--------------------
G---(0)---------------00000000000000--------------------
D---(0)---------(7)---55555555555555--------------------
A---(5)---------(5)---33333333333333--------------------
E---(3)---------(0)-------------------------------------

[ Tab from: http://www.guitartabs.cc/tabs/b/brand_new/the_boy_who_blocked_his_own_shot_tab.html ]
E--------------------------------
B---------------------(3)--------
G---(0)---------------(0)--------  
D---(0)---------(7)---(5)--------
A---(5)---------(5)---(3)--------
E---(3)---------(0)--------------

Play Verse While GTR I Plays 




GTR I
Electric/Distortion:
E--------------------------------------------------------------------------------
B--------------------------------------------------------------------------------
G--12-12-12-12/16-16-16-16-14-14-14-14-14-19-19-19-19-19-12-12-12-12-12----------
D---x--x--x--x--x--x--x--x--x--x--x--x--x--x--x--x--x--x--x--x--x--x--x----------
A--10-10-10-10/14-14-14-14-12-12-12-12-12-17-17-17-17-17-10-10-10-10-10----------
E--------------------------------------------------------------------------------


E----------------------------------------------------------------
B----------------------------------------------------------------
G-12-12-12-12-----14-14-14-14-14-16-16-16-16-12-12-12-12---------
D--x--x--x--x------x--x--x--x--x--x--x--x--x--x--x--x--x---------
A-10-10-10-10-----12-12-12-12-12-14-14-14-14-10-10-10-10---------
E----------------------------------------------------------------


GTR I
Tremelo Effect:
E------10--10--10--10--------------
B----------------------------------
G----------------------------------
D----------------------------------
A----------------------------------
E----------------------------------


GTR I
Tremelo Effect:
E------------------------(3)-------
B----------------------0-----------
G------(2)------0----2-------------
D----------------------------------
A----------------------------------
E----------------------------------




End:
GTR II
E---3--------------------------
B---3--------------------------
G---0--------------------------
D---0--------------------------
A---2--------------------------
E---3--------------------------








Comments