Brand New - Tautou Chords & Tabs

 

Tautou Chords & Tabs

Brand New Chords & Tabs

Version: 4 Type: Tab 0 ratings
1 star 2 stars 3 stars 4 stars 5 stars
comments

Tautou Tab

i noticed the other people who tabbed this song were trying way too hard, and thinking 
much....this was a damn easy tab. i hope you enjoy it, very good song, very good. i wish 
guy would sing it to me, yeah.


-------------------------------------------------------------------------
			     TANTOU - Brand New
-------------------------------------------------------------------------
Tabbed by:Allison Garces
Email: allisongarces@aol.com

Tuning: eb. 1/2 step down
[ Tab from: http://www.guitartabs.cc/tabs/b/brand_new/tautou_tab_ver_4.html ]
e|--------------------------------|----------------------------------------|
B|--4h5p4-0-----------------------|-5-4-2-0---5-4-2-0----------------------|
G|-----------1-1h2-2--2-1---------|-------------------1-1h2-2--2-2-2-2-4-1-|
D|------------------------4-4-2---|----------------------------------------|
A|------------------------------2-|----------------------------------------|
E|--------------------------------|----------------------------------------|

e|----------------------------------------------------------------------|
B|--------5----------------5---------------5----------------5-----------|
G|-----6----6---6------6-----6---------6-----6---6------6-----6---------|
D|---6---6----6------6---6-----6-----6---6-----6------6---6-----6-------|
A|-4---------------4-------------4-0----------------0-------------0-4---|
E|----------------------------------------------------------------------|

e|------------------------------------------------------------------------|
B|---------5----------------5------------------4----------------4---------|
G|-----6-----6---6------6-----6---6--------6-----6---6------6-----6--6----|
D|---6---6-----6------6---6-----6--------6---6-----6------6---6----6------|
A|-4----------------4----------------4-0---------------0------------------|
E|------------------------------------------------------------------------|
Comments