Brand New - Tautou Chords & Tabs

 

Tautou Chords & Tabs

Brand New Chords & Tabs

Version: 3 Type: Tab 0 ratings
1 star 2 stars 3 stars 4 stars 5 stars
comments

Tautou Tab

Artist: Brand new
Track: Tautou
Album: Deja Entendu

~ Let ring
 let's say this means there's reverb (an echo) on this note

You can hear this intro being played in the distance at first:

E--------------------------------------------------------------------------|
B--------------------------------------------------------------------------|
G--------------------------------------------------------------------------|
D--------------------------------------------------------------------------|
A-13~----17/18-13--10-10/11--11-10-8-6~------------------------------------|
E---------------------------------------6~--------------------------------|

Bit during the time the singing starts:

E--------------------------------------------------------------------------|
B--------------------------------------------------------------------------|
G--------------------------------------------------------------------------|
D--13~-12~-------------13~-12~---------------------------------------------|
A----------15~-13~-------------15~-13~--10-10/11-11-11---------------------|
E--------------------------------------------------------------------------|
[ Tab from: http://www.guitartabs.cc/tabs/b/brand_new/tautou_tab_ver_3.html ]
[The guitar then continues to play 10 and 11 on A, alternately in no perticular tune]

The guitar eventually plays this:
E--------------------------------------------------------------------------|
B--------------------------------------------------------------------------|
G-----------8---------------8------------------8-------------------8-------|
D-------10---10--10-----10---10--10--------10---10--10---------10---10--10-|
A-----10--10---10-----10--10---10--------10--10---10---------10--10---10---|
E---8---------------8------------------7-------------------7---------------|


E-----------------------------------------------------------------------|
B-----------------------------------------------------------------------|
G-----------8-----------------8---------------7-----------------7-------|
D-------10---10--10-------10---10--10-----10---10--10-------10---10--10-|
A-----10--10---10-------10--10---10-----10--10---10-------10--10---10---|
E---8-----------------8---------------7-----------------7---------------|

[This is repeated until the song slowly goes quieter and ends]
This is a very short, and easy song. So basically, I believe this entire tab is
correct. I think the other version is in a different key or something..but it's
still a good tab.             
                                   $hab
Comments