Brand New - Tautou Chords & Tabs

 

Tautou Chords & Tabs

Brand New Chords & Tabs

Version: 2 Type: Tab 0 ratings
1 star 2 stars 3 stars 4 stars 5 stars
comments

Tautou Tab

   
			       TAUTOU - BRAND NEW
Tabbed by:BRANDNEWROCK
Email:GREG_PURSER@HOTMAIL.COM

Tuning:REG (helps if you put capo on 1st fret)

e|---------------------------------------------------------------------------|
B|-----12-----11-------------------------------------------------------------|
G|-8H9----7H8----------------------------------------------------------------|
D|---------------------------------------------------------------------------|
A|---------------10 10H11-11-11-11-11-11-11-11P10-8-6-1----------------------|
E|---------------------------------------------------------------------------|

e|---------------------------------------------------------------------------|
B|-8--7---5--3----8--7---5--3---8--7---5--3----------------------------------|
G|---------------------------------------------------------------------------|
D|---------------------------------------------------------------------------|
A|---------------------------------------------------------------------------|
E|---------------------------------------------------------------------------|
     im sinking like a stone in the sea
[ Tab from: http://www.guitartabs.cc/tabs/b/brand_new/tautou_tab_ver_2.html ]
e|---------------------------------------------------------------------------|
B|---------------------------------------------------------------------------|
G|---------------------------------------------------------------------------|
D|---------------------------------------------------------------------------|
A|--10-10H11-11-11-11-11-11-11-11P10-8-6-1-----------------------------------|
E|---------------------------------------------------------------------------|
   im burning like a bridge for your body

e|----------------------------------------------------------------------------|
B|--1-4-1-1----1-4-1-1---1-4-1-1--1-4-1-1---1-4-1-1--1-4-1-1--1-3-1-1--1-3-1-1|
G|----------------------------------------------------------------------------|
D|-1-1---1---1--1---1---1-1---1--1-1---1---1-1---1--1-1---1--1-1---1--1-1---1-|
A|3---------3----------1--------1---------3--------3--------1--------1--------|
E|----------------------------------------------------------------------------|


| /  slide up
| \  slide down
| h  hammer-on
| p  pull-off
| ~  vibrato
| +  harmonic
| x  Mute note
==============================================
Comments