Brand New - Sudden Death In Carolina Chords & Tabs

 

Sudden Death In Carolina Chords & Tabs

Brand New Chords & Tabs

Version: 2 Type: Tab 0 ratings
1 star 2 stars 3 stars 4 stars 5 stars
comments

Sudden Death In Carolina Tab

   
----------------------------------------------------------------------------
			     Sudden Death in Carolina
                                 Brand New
----------------------------------------------------------------------------
Tabbed by:Sean Iveson (Seanarooni)
Email:Seanarooni_89@yahoo.com

Tuning:down half step (normal with first fret pushed down)

this is my first tab that i have submitted but yeah its right or close enough
its not the WHOLE but its good enough to get the main parts
maybe part 1 will have the right chords?

parentheses () mean the note is there, but u dont have to play it if u don't
wanto (good for learning)


part I guitar 1
e|-------------------------------------------------------------------------|
B|-------------------------------------------------------------------------|
G|-------------------------------------------------------------------------|
D|------4---4-5-4----------------------------------------------------------|
A|--5-5---5-------(0)--------5---5-7-5-(0)--------4---4-5-4-(0)------------|
E|-----------------------7-7---7--------------5-5---5----------------------|
[ Tab from: http://www.guitartabs.cc/tabs/b/brand_new/sudden_death_in_carolina_tab_ver_2.html ]
e|-------------------------------------------------------------------------|
B|-------------------------------------------------------------------------|
G|-------------------------------------------------------------------------|
D|-------------------------------------------------------------------------|
A|---------------4-0-------------------------------------------------------|
E|---3-3-2-2-0-0-----------------------------------------------------------|


Part I guitar 2
listen for rythem and pattern
     D5    B5   A5               G5 D/F# G5  A5
e|-------------------------------------------------------------------------|
B|-------------------------------------------------------------------------|
G|-------------------------------------------------------------------------|
D|----7--------------------------------------------------------------------|
A|----5----9----7----------------5-5-5-5-5-5-7-7---------------------------|
E|---------7----5----------------3-3-2-2-3-3-5-5---------------------------|


Part II  
  B5     D5  Dflat5           A5
e|-------------------------------------------------------------------------|
B|-------------------------------------------------------------------------|
G|-------------------------------------------------------------------------|
D|-------------------------------------------------------------------------|
A|-9-9-9--12--11--------------7------------7-7-----------------------------|
E|-7-7-7--10--9---------------5------------5-5-----------------------------|
                             let it ring


| /  slide up
| \  slide down
| h  hammer-on
| p  pull-off
| ~  vibrato
| +  harmonic
| x  Mute note
 
============================================================================
Comments