Brand New - Sic Transit Gloria Glory Fades Chords & Tabs

 

Sic Transit Gloria Glory Fades Chords & Tabs

Brand New Chords & Tabs

Version: 6 Type: Bass Tab 0 ratings
1 star 2 stars 3 stars 4 stars 5 stars
comments

Sic Transit Gloria Glory Fades Bass Tab

alright...I think my version of playing this is right...so here we go...

DROP D TUNING


intro/verse
G-----------------------------------/----------------------------------|
D--------------------6-5-----6-5-6-8/------------------6-5---6-5---6-5-|
A----3-3-3-3-3-3-3-3-----6----------/---3-3-3-3-3-3-3-3----6-----6-----|
D--------------------------6--------/----------------------------------|

chorus
[ Tab from: http://www.guitartabs.cc/tabs/b/brand_new/sic_transit_gloria_glory_fades_btab_ver_6.html ]
G--------------------------------------------------------------------------|
D--------------------------------------------------------------------------|
A--3-3-3-3-3-3-3---------------------------8-8-8-8-6-6-6-6-----------------|
D----------------1-1-1-1-6h8-8-8-8-8-8-8-8-----------------6-6-6-6-3-3-1-1-|

IM not really sure about the bridge and stuff...but i think what i have is basically 
there you have it

rock on
Comments