Brand New - Sic Transit Gloria Glory Fades Chords & Tabs

 

Sic Transit Gloria Glory Fades Chords & Tabs

Brand New Chords & Tabs

Version: 3 Type: Bass Tab 0 ratings
1 star 2 stars 3 stars 4 stars 5 stars
comments

Sic Transit Gloria Glory Fades Bass Tab

************************************** 
* tabbed by willV!!! and kmanpsycho, KOLD FYRE
* this iis 99.9 percent correct, if there is anything wrong,
* which there shudnt b email kman_psycho@hotmail.com
* Awsome song, brand new rock on!!!
******************************************
DROP  step! 

"Brand new - Sic transit gloria...glory fades"
          
The bass riff that everyone likes...

Verse::
F#||-----------------------|----------------------|--2----1--------------|
C#||*----------------------|----------------------|------------2---------|
G#||*--4----4----4----4----|--4----4----4----4----|-----------------0----|
D#||-----------------------|----------------------|----------------------|


--2----1---------4----|----------------------|----------------------|
------------2---------|----------------------|----------------------|
----------------------|--4----4----4----4----|--4----4----4----4----|
----------------------|----------------------|----------------------|


                                              Repeat
--2----1---------2----|--1---------2----1-----||--1---------2----1----|
------------2---------|-------2--------------*||-------2--------------|
----------------------|----------------------*||----------------------|
----------------------|-----------------------||----------------------|


    CHORUS..........
|---------------------------|--------------------------|
|*--------------------------|--------------------------|
|*--4--4--4--4--4--4--4--4--|--------------------------|
|---------------------------|--0--0--0--0--0--0--0--0--|


--------------------------|--------------------------|
--------------------------|--------------------------|
--0--2--4--4--4--4--2--4/-|--9--9--9--9--7--7--7--7--|
--------------------------|--------------------------|

[ Tab from: http://www.guitartabs.cc/tabs/b/brand_new/sic_transit_gloria_glory_fades_btab_ver_3.html ]
--------------------------|---------------------------||
--------------------------|--------------------------*||Repeat x1
--0--0--0--0--0--0--0-----|--------------------------*||
-----------------------4--|--2--2--2--2--0--0--0--0---||


            end of chorus ** BRIDGE STARTS HERE **
--------------------------|-----------------------|-----------------------|
--------------------------|-----------------------|-----------------------|
--------------------------|--4----4---------------|--4----4---------------|
--2--2--2--2--x--x--x--x--|----------5----5--5----|----------5----5--5----|


-----------------------|-----------------------|-----------------------|
-----------------------|-----------------------|-----------------------|
-----------------------|-----------------------|--4----4---------------|
--2----2--0----0--0----|--2----2--0----0--0----|----------5----5--5----|


-----------------------|--------------------------|------------------------|
-----------------------|--------------------------|------------------------|
--4----4---------------|--7--7--7--7--7--7--7--7--|--7--7--7--7--7--7--7--7|
----------5----5--5----|--------------------------|------------------------|


-----------------------|-----------------------|-----------------------|
-----------------------|-----------------------|-----------------------|
--4----4---------------|--4----4---------------|-----------------------|
----------5----5--5----|----------5----5--5----|--2----2--0----0--0----|


-----------------------|-----------------------|-----------------------|
-----------------------|-----------------------|-----------------------|
-----------------------|--4----4---------------|--4----4---------------|
--2----2--0----0--0----|----------5----5--5----|----------5----5--5----|


--------------------------|--------------------------||
--------------------------|--------------------------||
--7--7--7--7--7--7--7--7--|--7--7--7--7--7--7--7--7--||
--------------------------|--------------------------||

===============================================================
                     OrDer!
*verse       
*chorus gtr1 
*verse
*chorus gtr1
*bridge gtr1 + gtr 2
*chorus gtr1
===============================================================
Comments