Brand New - Sic Transit Gloria Glory Fades Chords & Tabs

 

Sic Transit Gloria Glory Fades Chords & Tabs

Brand New Chords & Tabs

Version: 2 Type: Bass Tab 1 rating
1 star 2 stars 3 stars 4 stars 5 stars
comments

Sic Transit Gloria Glory Fades Bass Tab

This song just rocks. anyway this really sounds like the song. Just 
leave your guitar in a standard tuning.
Key:
 ~ = Slide 

Intro
G----------------------------------------------------|
D--------------6-5---6-7----7-9------------6-5---7-6-|
A--3333-3333-------6------6------3333-3333-----6-----|
E----------------------------------------------------|
[ Tab from: http://www.guitartabs.cc/tabs/b/brand_new/sic_transit_gloria_glory_fades_btab_ver_2.html ]
Verse
G----------------------------------------------------|
D-------------6-5---6-7----7-9-----------6-5---7-6---|
A--3333-3333------6------6-----3333-3333-----6-------|x6
E----------------------------------------------------|

Chorus
G----------------------------------------------------|
D---------------------------1~33333------------------|
A--33333333----------1~3333--------------------------|x2
E-----------11111111----------------11111111---------|




Bridge
G----------------------------------------------------|
D----------------------------------------------------|
A-3-3-----3-3-----3-3-----3-3------------------------|x2
E-----4-4-----4-4-----6-6-----6-6--------------------|

Order:
Intro
Verse
Chorus
Verse 
Chorus
Bridge 
Chorus
Comments