Brand New - Sic Transit Gloria Glory Fades Chords & Tabs

 

Sic Transit Gloria Glory Fades Chords & Tabs

Brand New Chords & Tabs

Version: 1 Type: Bass Tab 0 ratings
1 star 2 stars 3 stars 4 stars 5 stars
comments

Sic Transit Gloria Glory Fades Bass Tab

Artist: Brand New
Song:   Sic Transit Gloria... Glory Fades
Album:  Deja Entendu

i give credit to Sircallahan17 for his tab, but it is sadly wrong. im pretty sure that this is 100% correct and the verse in this version is easier to play because you don’t have to move your hand around as much

dropped D tuning


verse
G-------------------------------3-
D-----------------6-5-----6-5-----
A-3-3-3-3-3-3-3-3-----6-------6---
D-----------------------6---------

G---------------------------------
D-----------------6-5---6-5---6-5-
A-3-3-3-3-3-3-3-3-----6-----6-----
D---------------------------------

chorus
G----------------------------------------------------------
D----------------------------------------------------------
A-3-3-3-3-3-3-3-3-----------------1/3-3-3-3-3-3-3-3--------
D-----------------6-6-6-6-6-6-6-6--------------------------
[ Tab from: http://www.guitartabs.cc/tabs/b/brand_new/sic_transit_gloria_glory_fades_btab.html ]
G----------------------------------------------------------
D-3-3-3-3-1-1-1-1------------------------------------------
A----------------------------------------------------------
D-----------------6-6-6-6-6-6-6-6-3-3-3-3-1-1-1-1----------

bridge
G----------------------------------------------------------
D----------------------------------------------------------
A-3-------------3------------------------------------------
D---6-6-6-6-6-6---6-6-6-6-6-6-3-1-1-1-1-1-1-3-1-1-1-1-1-1--

G----------------------------------------------------------
D----------------------------------------------------------
A-3------------3--------------6-6-6-6-6-6--6--6-6-6-6-6-6--
D---6-6-6-6-6-6---6-6-6-6-6-6------------------------------

this is the second have of the verse that they throw in while singing “Up the stairs, the station where...” we’ll call it verse2

verse2
G---------------------------------
D-----------------6-5---6-5---6-5-
A-3-3-3-3-3-3-3-3-----6-----6-----
D---------------------------------



order of riffs
verse  x 5
chorus x 2
verse  x 4
bridge x 3
verse2 x 1
chorus x 2
Comments