Brand New - Seventy Times 7 Chords & Tabs

 

Seventy Times 7 Chords & Tabs

Brand New Chords & Tabs

Version: 5 Type: Tab 0 ratings
1 star 2 stars 3 stars 4 stars 5 stars
comments

Seventy Times 7 Tab

Arist: Brand New
Song Title: Seventy Times 7
Album: Your Favorite Weapon
Tabbed by: Shan A.
Im me on AIM if u need help: Paythuprise

This is my first tab so if i suck just chill...please rate it

Intro

Guitar 1
|----------------|----------------|----------------|----------------| 
|----------------|----------------|----------------|----------------| 
|----------------|----------------|----------------|6-6---6---6---6-| 
|6-6---6---6---6-|6-6---6---6---6-|6-6---6---6---6-|6-6---6---6---6-| 
|6-6---6---6---6-|6-6---6---6---6-|6-6---6---6---6-|4-4---4---4---4-| 
|4-4---4---4---4-|4-4---4---4---4-|4-4---4---4---4-|----------------| 

Guitar 2
|------------------|--------------|----------------|----------------|
|------------------|--------------|----------------|----------------|
|------------------|-6------------|----------------|6---------------|
|-6----------------|-6------------|-6--------------|6--Let-it-ring--|
|-6---Let-it-ring--|-4--ring------|-6-mute---------|4---------------|
|-4----------------|--------------|-4--------------|----------------|

Solo

Guitar 1
|----------------|----------------|----------------|----------------| 
|----------------|----------------|----------------|----------------| 
|----------------|----------------|8-8---8---8---8-|8-8---8---8---8-| 
|6-6---6---6---6-|6-6---6---6---6-|8-8---8---8---8-|8-8---8---8---8-| 
|6-6---6---6---6-|6-6---6---6---6-|6-6---6---6---6-|6-6---6---6---6-| 
|4-4---4---4---4-|4-4---4---4---4-|----------------|----------------|

|----------------|----------------|----------------|----------------| 
|----------------|----------------|----------------|----------------| 
|6-6---6---6---6-|6-6---6---6---6-|8-8---8---8---8-|6-6---6---6---6-| 
|6-6---6---6---6-|6-6---6---6---6-|8-8---8---8---8-|6-6---6---6---6-| 
|4-4---4---4---4-|4-4---4---4---4-|6-6---6---6---6-|4-4---4---4---4-| 
|----------------|----------------|----------------|----------------|

Guitar 2 (Solo)
|----------------|----------------|------------6---|------------8-8-| 
|------------4---|----------------|----8-8-9-9---9-|----------------| 
|----5-5-6-6---5-|----------------|8-8-------------|----------------| 
|6-6-------------|----------------|----------------|----------------| 
|----------------|----------------|----------------|----------------| 
|----------------|----------------|----------------|----------------|

|8-8-6-------8-8-|8-8-6-----------|6-6-8-8-9-9-11-9-|----------------| 
|------9---------|------9---------|-----------------|----------------| 
|----------------|----------------|-----------------|----------------| 
|----------------|----------------|-----------------|----------------| 
|----------------|----------------|-----------------|----------------| 
|----------------|----------------|-----------------|----------------|

|----------------|----------------|----------------|------8-9-8-8-6-| 
|----------------|----------------|------8---8-8-9-|--9-9-----------| 
|5-6---5-------8-|--8-8-6---5-5---|8-8-8-----------|----------------| 
|----------6-----|----------------|----------------|----------------| 
|----------------|----------------|----------------|----------------| 
|----------------|----------------|----------------|----------------|

|9-8---9-8---9-8-|9-8---9-8---9-8-|9-8---11-8-9-8---|9-8---11-8-9-8---| 
|----9-----9-----|----9-----9-----|----9----------9-|----9----------9-| 
|----------------|----------------|-----------------|-----------------| 
|----------------|----------------|-----------------|-----------------| 
|----------------|----------------|-----------------|-----------------| 
|----------------|----------------|-----------------|-----------------|

Verse

Guitar 1

|----------------|----------------|----------------|----------------|
|----------------|----------------|----------------|----------------|
|----------------|----------------|8-8-8-8-8-8-8-8-|8-8-8-8-8-8-8-8-|
|6-6-6-6-6-6-6-6-|6-6-6-6-6-6-6-6-|8-8-8-8-8-8-8-8-|8-8-8-8-8-8-8-8-|
|6-6-6-6-6-6-6-6-|6-6-6-6-6-6-6-6-|6-6-6-6-6-6-6-6-|6-6-6-6-6-6-6-6-|
|4-4-4-4-4-4-4-4-|4-4-4-4-4-4-4-4-|----------------|----------------|

|----------------|----------------|----------------|----------------|
|----------------|----------------|----------------|----------------|
|6-6-6-6-6-6-6-6-|6-6-6-6-6-6-6-6-|8-8-8-8-8-8-8-8-|6-6-6-6-6-6-6-6-|
|6-6-6-6-6-6-6-6-|6-6-6-6-6-6-6-6-|8-8-8-8-8-8-8-8-|6-6-6-6-6-6-6-6-|
|4-4-4-4-4-4-4-4-|4-4-4-4-4-4-4-4-|6-6-6-6-6-6-6-6-|4-4-4-4-4-4-4-4-|
|----------------|----------------|----------------|----------------|

Guitar 2 (not too sure)

|----------------|----------------|----------------|----------------| 
|----------------|----------------|----------------|----------------| 
|----------------|----------------|----------------|----------------| 
|----------------|----------------|--------6-6-5-5-|--------6-6-5-5-| 
|--------6-6-4-4-|--------6-6-4-4-|6-6-6-6---------|6-6-6-6---------| 
|4-4-4-4---------|4-4-4-4---------|----------------|----------------| 

|----------------|----------------|----------------|----------------| 
|----------------|----------------|----------------|----------------| 
|----------------|----------------|----------------|----------------| 
|--------4-4-6-6-|--------4-4-6-6-|--------6-6-5-5-|--------4-4-6-6-| 
|4-4-4-4---------|4-4-4-4---------|6-6-6-6---------|4-4-4-4---------| 
|----------------|----------------|----------------|----------------|

Chorus

Guitar 1

|----------------|----------------|----------------|----------------| 
|----------------|----------------|----------------|----------------| 
|----------------|----------------|6---6---6-6-6-6-|--6-6---6-6-6-6-| 
|6---6---6-6-6-6-|--6-6---6-6-6-6-|6---6---6-6-6-6-|--6-6---6-6-6-6-| 
|6---6---6-6-6-6-|--6-6---6-6-6-6-|4---4---4-4-4-4-|--4-4---4-4-4-4-| 
|4---4---4-4-4-4-|--4-4---4-4-4-4-|----------------|----------------|x2 

Guitar 2

|----------------|----------------|----------------|----------------| 
|----------------|----------------|----------------|----------------| 
|--------5-6-5---|--------5-6-5---|--------5-6-5---|--------5-6-5---| 
|6---5-----------|6---5-----------|6---5-----------|6---5-----------| 
|----------------|----------------|----------------|----------------| 
|----------------|----------------|----------------|----------------|x2


Back to the Verse...

Then Chorus again...

Interlude
[ Tab from: http://www.guitartabs.cc/tabs/b/brand_new/seventy_times_7_tab_ver_5.html ]
Its start off on bass. it starts off with something like this
Bass Guitar
|----------------|----------------|----------------|----------------| 
|----------------|----------------|----------------|----------------| 
|----------------|----------------|----------------|----------------| 
|4-4-4-4-4-4-4-4-|4-4-4-4-4-4-4-4-|1-1-1-1-1-1-1-1-|1-1-1-1-1-1-1-1-|

|----------------|----------------|----------------|----------------| 
|----------------|----------------|----------------|----------------| 
|6-6-6-6-6-6-6-6-|6-6-6-6-6-6-6-6-|4-4-4-4-4-4-4-4-||4-4-4-4-4-4-4-4| 
|----------------|----------------|----------------|----------------|


Then Guitar 2
  
Is that what you call tact      your as subtle as a brick in the small of the back
|------------------------------------------------------------------------|
|------------------------------------------------------------------------|
|-----------------6----5---------6---------------------------------------|
|------6-------------------6---------------------------------------------|
|------------------------------------------------------------------------|
|-4----------4-----------------------------------------------------------|


   So lets end this call and end this conversation
|------------------------------------------------------------------------|
|----------------------------2------1------------------------------------|
|-----1-----------------------------------1------6-----------------------|
|------------------------------------------------------------------------|
|------------------------------------------------------------------------|
|-1--------------1-------------------------------------------------------|


   And is that what you call a getaway  Well tell me what you got away with
|------------------------------------------------------------------------|
|------------------------------------------------------------------------|
|-------------------6-----5----------6-----------------------------------|
|------6------------------------6----------------------------------------|
|------------------------------------------------------------------------|
|-4----------4-----------------------------------------------------------|


Cause you left the frays from the ties you severed when u say best friends
means friends forever
|-------------------------------------------------------------------------|
|-------------------------------------------------------------------------|
|-------------------6-----5-----------6-----------------------------------|
|-----6-------------------------6-----------------------------------------|
|-4-----------4-----------------------------------------------------------|
|-------------------------------------------------------------------------|


Outro

Guitar 1 and 2

|----------------|----------------|----------------|----------------| 
|----------------|----------------|----------------|----------------| 
|----------------|----------------|----------------|----------------| 
|6---6---6-6-6-6-|6---6---6-6-6-6-|-3--3---3-3-3-3-|-3--3---3-3-3-3-| 
|6---6---6-6-6-6-|6---6---6-6-6-6-|-3--3---3-3-3-3-|-3--3---3-3-3-3-| 
|4---4---4-4-4-4-|4---4---4-4-4-4-|-1--1---1-1-1-1-|-1--1---1-1-1-1-|

|----------------|----------------|----------------|----------------|
|----------------|----------------|----------------|----------------| 
|8---8---8-8-8-8-|8---8---8-8-8-8-|6---6---6-6-6-6-|6---6---6-6-6-6-| 
|6---6---6-6-6-6-|6---6---6-6-6-6-|6---6---6-6-6-6-|6---6---6-6-6-6-| 
|6---6---6-6-6-6-|6---6---6-6-6-6-|4---4---4-4-4-4-|4---4---4-4-4-4-| 
|----------------|----------------|----------------|----------------|x2
On the 3x 
|----------------|----------------|----------------|----------------| 
|----------------|----------------|----------------|----------------| 
|----------------|----------------|----------------|----------------| 
|6---6---6-6-6-6-|6---6---6-6-6-6-|-3--3---3-3-3-3-|-3--3---3-3-3-3-| 
|6---6---6-6-6-6-|6---6---6-6-6-6-|-3--3---3-3-3-3-|-3--3---3-3-3-3-| 
|4---4---4-4-4-4-|4---4---4-4-4-4-|-1--1---1-1-1-1-|-1--1---1-1-1-1-|

|----------------|----------------|----------------|----------------|
|----------------|----------------|----------------|----------------| 
|8---8---8-8-8-8-|8---8---8-8-8-8-|6---6---6-6-----|----------------| 
|6---6---6-6-6-6-|6---6---6-6-6-6-|6---6---6-6-----|----------------| 
|6---6---6-6-6-6-|6---6---6-6-6-6-|4---4---4-4-----|----------------| 
|----------------|----------------|----------------|----------------|

do the outro one again

Enjoy

Lyrics

Back in school they never taught us 
what we needed to know 
Like how to deal with despair 
or someone breakin your heart 
For twelve years I've held it all together 
but a night like this is beggin to pull me apart 
I played it quiet left you deep in conversation 
I felt uncool and hung out around the kitchen 
I remember I kept thinking 
that I know you never would 
And now I know I want to kill you 
like only a best friend could 

Everyone's caught on to everything you do 
Everyone's caught on to... 

As if it happening wasn't enough 
I got to go and write a song 
just to remind myself how bad it sucked 
Ignore the sun, covers over my head 
Wrote a message on my pillow that says 
"Jesse, stay asleep in bed" 
Don't apologize (I hope you choke and die!) 
Search your cell for something which to hang yourself 
They say you need to pray 
if you want to go to heaven 
But they don't tell you what to say 
when your whole life has gone to Hell! 

Everyone's caught on to everything you do 
Everyone's caught on to... 
(and I can't let you let me down again) 
Everyone's caught on to everything you do 
(and I can't let you let me down again) 
Everyone's caught on to... 

So is that what you call a getaway? 
Tell me what you got away with 
Cause I've seen more spine on jellyfish 
I've seen more guts on eleven-year-old kids 
Have another drink and drive yourself home 
I hope there's ice on all the roads 
And you can think of me when you forget your seatbelt 
and again when your head goes through the windshield 

Is that what you call tact? 
You're as subtle as a brick in the small of my back 
So let's end this call and end this conversation 
And is that what you call a getaway? 
Tell me what you got away with 
Cause you left the frays from the ties you severed 
when you say "best friends" means friends forever 

Is that what you call a getaway?!! 
Tell me what you got away with!! 
Cause I've seen more spine on jellyfish!! 
I've seen more guts on eleven-year-old kids!! 
Have another drink and drive yourself home!! 
I hope there's ice on all the roads!! 
And you can think of me when you forget your seatbelt 
then when your head goes through the windshield!! 

(I can't let you let me down again) 
Everyone's caught on to everything you do 
(and I can't let you let me down again) 
Everyone's caught on to... 
(I can't let you let me down again) 
Everyone's caught on to everything you do 
(and I can't let you let me down again) 
Everyone's caught on to...
Comments