Brand New - Seventy Times 7 Chords & Tabs

 

Seventy Times 7 Chords & Tabs

Brand New Chords & Tabs

Version: 2 Type: Bass Tab

Seventy Times 7 Bass Tab

   
Band: Brand New
Song: Seventy times seven
Tuning: standard, D#
        (D#,A,D,G)

I have wrote this Tab with only th top string tuned down as you may find it easier to
play that way if you keep you guitar in standard tuning most of the time. This is an
excellent song and I could find any correct tabs for it anywhere so I tabbed it myself.
Im sure its  100% correct. enjoy..


~= let ring
*= mute note after playing
Intro

G:----------------------------------|
D:----------------------------------|
A:----------4~~---------------4~----|
D#:-7~~--------------7*-------------|


G:-----------------------------------------------|
D:-----------------------------------------------|      (x2)
A:-----------66666666-44444444-66666-4444--------|
D#:-77777777-------------------------------------|

Verse(x2)
G:-------------------------------------------------------------------------|
D:------------------------66555----66555----44666---44666---88666----------|
A:-----66444--- 66444--66-------66-------44-------44-----66------6666-4444-|
D#:-77-------77------------------------------------------------------------|
[ Tab from: http://www.guitartabs.cc/tabs/b/brand_new/seventy_times_7_btab_ver_2.html ]
Chorus
G:----------------------------------------------------------------------|
D:----------------------------------------------------------------------|
A:--------------------4444444444444444----------------44444444444444444-|
D#:-44444444444444444------------------444444444444444------------------|

Verse x2
chorus x2

Interlude (x6)

G:----------------------------------------------------------|
D:----------------------------------------------------------|
A:----------------------------------------------------------|
D#:-7777777777\4444444444\2222222222/7777777-000000000000---|


everything kicks in
outro (x2 )

G:----------------------------------------------------------|
D:----------------------------------------------------------|
A:----------------------------------------444444444444444---|
D#:-77777777777-444444444444-222222222222-------------------|

on the 2nd time play

G:----------------------------------------------------------|
D:----------------------------------------------------------|
A:----------------------------------------44-----44---------|
D#:-77777777777-444444444444-222222222222-------------------|


then play those exact two parts again for the chorus/outro

Hope this tab has helped you. im pretty sure its correct. if theres any problems email 
at ghostfacedkiller@hotmail.com