Brand New - Seventy Times 7 Chords & Tabs

 

Seventy Times 7 Chords & Tabs

Brand New Chords & Tabs

Version: 1 Type: Bass Tab 0 ratings
1 star 2 stars 3 stars 4 stars 5 stars
comments

Seventy Times 7 Bass Tab

Key-
~ = let ring
* = mute note after you play it
Intro   0:00   x 1     Intro 2   0:10      Play 2 Times
||------------------||---------------------------------------------||
||------------------||---------------------------------------------||
||-------4~-----4~--||--------------------------6666666666666666---||
||--4~~---4*--------||--4444444444444444---------------------------||
Intro 2 Continued
||-----------------------------------------||
||-----------------------------------------||
||--444444444444444--66666666--44444444----||
||-----------------------------------------||
Verse    		0:31                     Play 2 Times
||-------------------------------------------------------------------------||
||-------------------------------------------------------------------------||
||------------------6666666666666666--444444444444444--66666666--44444444--||
||--4444444444444444-------------------------------------------------------||
Chorus  		0:52                     Play 1 Time
||----------------------------------------------------------------------||
||----------------------------------------------------------------------||
||------------------4444444444444444-------------------4444444444444444--||
||--4444444444444444-----------------4444444444444444-------------------||
Verse 2 		1:03                     Play 1 Time
||-------------------------------------------------------------------------||
||-------------------------------------------------------------------------||
||------------------6666666666666666--444444444444444--66666666--44444444--||
||--4444444444444444-------------------------------------------------------||
Verse 2 Part 2       	1:13 	                Play 1 Time
||---------------------------------------------------------------------||
||---------------------------------------------------------------------||
||--------------6666666666666666--444444444444444--66666666--44444444--||
||--444444444\0--------------------------------------------------------||
Chorus 2		1:24                     Play 2 Times
||---------------------------------------------------------------------||
||---------------------------------------------------------------------||
||-------------------4444444444444444----------------4444444444444444--||
||--4444444444444444-----------------4444444444444444------------------||
Interlude		1:45		         Play 6 Times
||-----------------||
||-----------------||
||-----------------||
||--4~\1~-0~/4\1~--||
Outro 1		2:48		                 Play 1 Time
||------------------------------------------------------------------------||
||------------------------------------------------------------------------||
||-----------------------------------------------------------------44-44--||
||--44444444-11111111-00000000000000000-44444444-11111111-00000000--------||
Outro 2		3:09		                 Play 1 Time
||---------------------------------------||
||---------------------------------------||
||---------------------------------------||
||--44444444-11111111-00000000000000000--||
End			3:19		         Play 1 Time
||---------------------------||
||---------------------------||
||--------------------44-44--||
||--44444444-11111111--------||

I’m sure this tab is correct…  The only thing is that in the outros and end the
notes are doubled so instead of 8 4’s there are 16 4’s…  E-mail me if you notice
something wrong at lilbro9786@hotmail.com ---- Doug
[ Tab from: http://www.guitartabs.cc/tabs/b/brand_new/seventy_times_7_btab.html ]
Comments