Brand New - Play Crack The Sky Chords & Tabs

 

Play Crack The Sky Chords & Tabs

Brand New Chords & Tabs

Version: 1 Type: Tab 0 ratings
1 star 2 stars 3 stars 4 stars 5 stars
comments

Play Crack The Sky Tab

~Standard Tuning, Half Step Down~

Intro.
(X3)
e--3--3-3-3-3--3-3-3--|
B--0--0-0-0-0--3-3-3--|
G--0--0-0-0-0--0-0-0--|
D--0--0-0-0-2--2-2-2--|
A--2--2-2-2-3--3-3-3--|
E--3--3-3-3-X--X-X-X--|

e--3--3-3-3-3------3-3--|
B--0--0-0-0-0------0-0--|
G--0--0-0-0-2------2-2--|
D--2--2-2-2-2------2-2--|
A--2--2-2-2-0------0-0--|
E--0--0-0-0-X------X-X--|

Verse
(X3)
e--3--3-3-3-3--3-3-3--|
B--0--0-0-0-0--3-3-3--|
G--0--0-0-0-0--0-0-0--|
D--0--0-0-0-2--2-2-2--|
A--2--2-2-2-3--3-3-3--|
E--3--3-3-3-X--X-X-X--|

e--3--3-3-3-3---3-3--|
B--0--0-0-0-0---0-0--|
G--0--0-0-0-2---2-2--|
D--2--2-2-2-2---2-2--|
A--2--2-2-2-0---0-0--|
E--0--0-0-0-X---X-X--|

(X3)
e--3--3-3-3-3--3-3-3--|
B--0--0-0-0-0--3-3-3--|
G--0--0-0-0-0--0-0-0--|
D--0--0-0-0-2--2-2-2--|
A--2--2-2-2-3--3-3-3--|
E--3--3-3-3-X--X-X-X--|

e--3--3-3-3-3------3-3--|
B--0--0-0-0-0------0-0--|
G--0--0-0-0-2------2-2--|
D--2--2-2-2-2------2-2--|
A--2--2-2-2-0------0-0--|
E--0--0-0-0-X------X-X--|

(X3)
e--3--3-3-3-3--3-3-3--|
B--0--0-0-0-0--3-3-3--|
G--0--0-0-0-0--0-0-0--|
D--0--0-0-0-2--2-2-2--|
A--2--2-2-2-3--3-3-3--|
E--3--3-3-3-X--X-X-X--|

e--3--3-3-3-3---3-3--|
B--0--0-0-0-0---0-0--|
G--0--0-0-0-2---2-2--|
D--2--2-2-2-2---2-2--|
A--2--2-2-2-0---0-0--|
E--0--0-0-0-X---X-X--|

(X3)
e--3--3-3-3-3--3-3-3--|
B--0--0-0-0-0--3-3-3--|
G--0--0-0-0-0--0-0-0--|
D--0--0-0-0-2--2-2-2--|
A--2--2-2-2-3--3-3-3--|
E--3--3-3-3-X--X-X-X--|

e--3--3-3-3-3--|
B--0--0-0-0-0--|
G--0--0-0-0-2--|
D--2--2-2-2-2--|
A--2--2-2-2-0--|
E--0--0-0-0-X--|

Chorus
e--3--3-3-3-3--3-3-3-3--3-3-3-3--3-3-3-3------3-3-3-3------3-3-3--|
B--3--3-3-3-3--3-3-3-0--0-0-0-0--0-0-0-0------0-0-0-0------0-0-0--|
G--0--0-0-0-0--0-0-0-0--0-0-0-0--0-0-0-0------0-0-0-2------2-2-2--|
D--2--2-2-2-2--2-2-2-0--0-0-0-0--0-0-0-2------2-2-2-2------2-2-2--|
A--3--3-3-3-3--3-3-3-2--2-2-2-2--2-2-2-2------2-2-2-0------0-0-0--|
E--X--X-X-X-X--X-X-X-3--3-3-3-3--3-3-3-0------0-0-0-X------X-X-X--|

e--3--3-3-3-3--3-3-3-3------3-3-3-3------3-3-3-3------3-3--|
B--3--3-3-3-3--3-3-3-0------0-0-0-0------0-0-0-0------0-0--|
G--0--0-0-0-0--0-0-0-0------0-0-0-0------0-0-0-2------2-2--|
D--2--2-2-2-2--2-2-2-0------0-0-0-2------2-2-2-2------2-2--|
A--3--3-3-3-3--3-3-3-2------2-2-2-2------2-2-2-0------0-0--|
E--X--X-X-X-X--X-X-X-3------3-3-3-0------0-0-0-X------X-X--|

Bridge
(X3)
e--3--3-3-3-3--3-3-3--|
B--0--0-0-0-0--3-3-3--|
G--0--0-0-0-0--0-0-0--|
D--0--0-0-0-2--2-2-2--|
A--2--2-2-2-3--3-3-3--|
E--3--3-3-3-X--X-X-X--|

e--3--3-3-3-3------3-3--|
B--0--0-0-0-0------0-0--|
G--0--0-0-0-2------2-2--|
D--2--2-2-2-2------2-2--|
A--2--2-2-2-0------0-0--|
E--0--0-0-0-X------X-X--|

Verse
(X3)
e--3--3-3-3-3--3-3-3--|
B--0--0-0-0-0--3-3-3--|
G--0--0-0-0-0--0-0-0--|
D--0--0-0-0-2--2-2-2--|
A--2--2-2-2-3--3-3-3--|
E--3--3-3-3-X--X-X-X--|

e--3--3-3-3-3---3-3--|
B--0--0-0-0-0---0-0--|
G--0--0-0-0-2---2-2--|
D--2--2-2-2-2---2-2--|
A--2--2-2-2-0---0-0--|
E--0--0-0-0-X---X-X--|

(X3)
e--3--3-3-3-3--3-3-3--|
B--0--0-0-0-0--3-3-3--|
G--0--0-0-0-0--0-0-0--|
D--0--0-0-0-2--2-2-2--|
A--2--2-2-2-3--3-3-3--|
E--3--3-3-3-X--X-X-X--|

e--3--3-3-3-3------3-3--|
B--0--0-0-0-0------0-0--|
G--0--0-0-0-2------2-2--|
D--2--2-2-2-2------2-2--|
A--2--2-2-2-0------0-0--|
E--0--0-0-0-X------X-X--|

(X3)
e--3--3-3-3-3--3-3-3--|
B--0--0-0-0-0--3-3-3--|
G--0--0-0-0-0--0-0-0--|
D--0--0-0-0-2--2-2-2--|
A--2--2-2-2-3--3-3-3--|
E--3--3-3-3-X--X-X-X--|

e--3--3-3-3-3---3-3--|
B--0--0-0-0-0---0-0--|
G--0--0-0-0-2---2-2--|
D--2--2-2-2-2---2-2--|
A--2--2-2-2-0---0-0--|
E--0--0-0-0-X---X-X--|

(X3)
e--3--3-3-3-3--3-3-3--|
B--0--0-0-0-0--3-3-3--|
G--0--0-0-0-0--0-0-0--|
D--0--0-0-0-2--2-2-2--|
A--2--2-2-2-3--3-3-3--|
E--3--3-3-3-X--X-X-X--|

e--3--3-3-3-3--|
B--0--0-0-0-0--|
G--0--0-0-0-2--|
D--2--2-2-2-2--|
A--2--2-2-2-0--|
E--0--0-0-0-X--|

Chorus (X2)
e--3--3-3-3-3--3-3-3-3----3--3-3-3-3----3--3-3-3-3--3-3-3-3--3-3-3--|
B--3--3-3-3-3--3-3-3-0----0--0-0-0-0----0--0-0-0-0--0-0-0-0--0-0-0--|
G--0--0-0-0-0--0-0-0-0----0--0-0-0-0----0--0-0-0-2--2-2-2-2--2-2-2--|
D--2--2-2-2-2--2-2-2-0----0--0-0-0-2----2--2-2-2-2--2-2-2-2--2-2-2--|
A--3--3-3-3-3--3-3-3-2----2--2-2-2-2----2--2-2-2-0--0-0-0-0--0-0-0--|
E--X--X-X-X-X--X-X-X-3----3--3-3-3-0----0--0-0-0-X--X-X-X-X--X-X-X--|
[ Tab from: http://www.guitartabs.cc/tabs/b/brand_new/play_crack_the_sky_tab.html ]
e--3--3-3-3-3--3-3-3-3----3--3-3-3-3----3--3-3-3-3--|
B--3--3-3-3-3--3-3-3-0----0--0-0-0-0----0--0-0-0-0--|
G--0--0-0-0-0--0-0-0-0----0--0-0-0-0----0--0-0-0-2--|
D--2--2-2-2-2--2-2-2-0----0--0-0-0-2----2--2-2-2-2--|
A--3--3-3-3-3--3-3-3-2----2--2-2-2-2----2--2-2-2-0--|
E--X--X-X-X-X--X-X-X-3----3--3-3-3-0----0--0-0-0-X--|

Outro.
e--3--3-3-3--3-3--3-3--3-3-3-3--3--3-3-3--3-3--3-3--3-3-3-3--|
B--0--0-0-0--0-0--0-0--0-0-0-0--0--0-0-0--0-0--0-0--0-0-0-0--|
G--0--0-0-0--0-0--0-0--0-0-0-0--0--0-0-0--0-0--0-0--0-0-0-0--|
D--0--0-0-0--0-0--0-0--0-0-0-0--0--0-0-0--0-0--0-0--0-0-0-0--|
A--2--2-2-2--2-2--2-2--2-2-2-2--2--2-2-2--2-2--2-2--2-2-2-2--|
E--3--3-3-3--3-3--3-3--3-3-3-3--3--3-3-3--3-3--3-3--3-3-3-3--|

e--3--3-3-3--3-3--3-3--3-3-3-3--3--3-3-3--3-3--3-3--3-3-3-3--|
B--0--0-0-0--0-0--0-0--0-0-0-0--0--0-0-0--0-0--0-0--0-0-0-0--|
G--0--0-0-0--0-0--0-0--0-0-0-0--0--0-0-0--0-0--0-0--0-0-0-0--|
D--2--2-2-2--2-2--2-2--2-2-2-2--2--2-2-2--2-2--2-2--2-2-2-2--|
A--3--3-3-3--3-3--3-3--3-3-3-3--3--3-3-3--3-3--3-3--3-3-3-3--|
E--X--X-X-X--X-X--X-X--X-X-X-X--X--X-X-X--X-X--X-X--X-X-X-X--|

e--3--3-3-3--3-3--3-3--3-3-3-3--3--3-3-3--3-3--3-3--3-3-3-3--|
B--0--0-0-0--0-0--0-0--0-0-0-0--0--0-0-0--0-0--0-0--0-0-0-0--|
G--0--0-0-0--0-0--0-0--0-0-0-0--0--0-0-0--0-0--0-0--0-0-0-0--|
D--0--0-0-0--0-0--0-0--0-0-0-0--0--0-0-0--0-0--0-0--0-0-0-0--|
A--2--2-2-2--2-2--2-2--2-2-2-2--2--2-2-2--2-2--2-2--2-2-2-2--|
E--3--3-3-3--3-3--3-3--3-3-3-3--3--3-3-3--3-3--3-3--3-3-3-3--|

e--3--3-3-3--3-3--3-3--3-3-3-3--3--3-3-3--3-3--3-3--3-3-3-3--|
B--0--0-0-0--0-0--0-0--0-0-0-0--0--0-0-0--0-0--0-0--0-0-0-0--|
G--0--0-0-0--0-0--0-0--0-0-0-0--0--0-0-0--0-0--0-0--0-0-0-0--|
D--2--2-2-2--2-2--2-2--2-2-2-2--2--2-2-2--2-2--2-2--2-2-2-2--|
A--3--3-3-3--3-3--3-3--3-3-3-3--3--3-3-3--3-3--3-3--3-3-3-3--|
E--X--X-X-X--X-X--X-X--X-X-X-X--X--X-X-X--X-X--X-X--X-X-X-X--|

e--3--3-3-3--3-3--3-3--3-3-3-3--3--3-3-3--3-3--3-3--3-3-3-3--|
B--0--0-0-0--0-0--0-0--0-0-0-0--0--0-0-0--0-0--0-0--0-0-0-0--|
G--0--0-0-0--0-0--0-0--0-0-0-0--0--0-0-0--0-0--0-0--0-0-0-0--|
D--2--2-2-2--2-2--2-2--2-2-2-2--2--2-2-2--2-2--2-2--2-2-2-2--|
A--2--2-2-2--2-2--2-2--2-2-2-2--2--2-2-2--2-2--2-2--2-2-2-2--|
E--0--0-0-0--0-0--0-0--0-0-0-0--0--0-0-0--0-0--0-0--0-0-0-0--|

e--3--3-3-3--3-3--3-3--3-3-3-3--3--3-3-3--3-3--3-3--3-3-3-3--|
B--0--0-0-0--0-0--0-0--0-0-0-0--0--0-0-0--0-0--0-0--0-0-0-0--|
G--2--2-2-2--2-2--2-2--2-2-2-2--2--2-2-2--2-2--2-2--2-2-2-2--|
D--2--2-2-2--2-2--2-2--2-2-2-2--2--2-2-2--2-2--2-2--2-2-2-2--|
A--0--0-0-0--0-0--0-0--0-0-0-0--0--0-0-0--0-0--0-0--0-0-0-0--|
E--X--X-X-X--X-X--X-X--X-X-X-X--X--X-X-X--X-X--X-X--X-X-X-X--|

e--3--3-3-3--3-3--3-3--3-3-3-3--3--3-3-3--3-3--3-3--3-3-3-3--|
B--0--0-0-0--0-0--0-0--0-0-0-0--0--0-0-0--0-0--0-0--0-0-0-0--|
G--0--0-0-0--0-0--0-0--0-0-0-0--0--0-0-0--0-0--0-0--0-0-0-0--|
D--0--0-0-0--0-0--0-0--0-0-0-0--0--0-0-0--0-0--0-0--0-0-0-0--|
A--2--2-2-2--2-2--2-2--2-2-2-2--2--2-2-2--2-2--2-2--2-2-2-2--|
E--3--3-3-3--3-3--3-3--3-3-3-3--3--3-3-3--3-3--3-3--3-3-3-3--|

e--3--3-3-3--3-3--3-3--3-3-3-3--3--3-3-3--3-3--3-3--3-3-3-3--|
B--0--0-0-0--0-0--0-0--0-0-0-0--0--0-0-0--0-0--0-0--0-0-0-0--|
G--0--0-0-0--0-0--0-0--0-0-0-0--0--0-0-0--0-0--0-0--0-0-0-0--|
D--2--2-2-2--2-2--2-2--2-2-2-2--2--2-2-2--2-2--2-2--2-2-2-2--|
A--3--3-3-3--3-3--3-3--3-3-3-3--3--3-3-3--3-3--3-3--3-3-3-3--|
E--X--X-X-X--X-X--X-X--X-X-X-X--X--X-X-X--X-X--X-X--X-X-X-X--|

e--3--3-3-3--3-3--3-3--3-3-3-3--3--3-3-3--3-3--3-3--3-3-3-3--|
B--0--0-0-0--0-0--0-0--0-0-0-0--0--0-0-0--0-0--0-0--0-0-0-0--|
G--0--0-0-0--0-0--0-0--0-0-0-0--0--0-0-0--0-0--0-0--0-0-0-0--|
D--0--0-0-0--0-0--0-0--0-0-0-0--0--0-0-0--0-0--0-0--0-0-0-0--|
A--2--2-2-2--2-2--2-2--2-2-2-2--2--2-2-2--2-2--2-2--2-2-2-2--|
E--3--3-3-3--3-3--3-3--3-3-3-3--3--3-3-3--3-3--3-3--3-3-3-3--|

e--3--3-3-3--3-3--3-3--3-3-3-3--3--3-3-3--3-3--3-3--3-3-3-3--|
B--0--0-0-0--0-0--0-0--0-0-0-0--0--0-0-0--0-0--0-0--0-0-0-0--|
G--0--0-0-0--0-0--0-0--0-0-0-0--0--0-0-0--0-0--0-0--0-0-0-0--|
D--2--2-2-2--2-2--2-2--2-2-2-2--2--2-2-2--2-2--2-2--2-2-2-2--|
A--3--3-3-3--3-3--3-3--3-3-3-3--3--3-3-3--3-3--3-3--3-3-3-3--|
E--X--X-X-X--X-X--X-X--X-X-X-X--X--X-X-X--X-X--X-X--X-X-X-X--|

e--3--3-3-3--3-3--3-3--3-3-3-3--3--3-3-3--3-3--3-3--3-3-3-3--|
B--0--0-0-0--0-0--0-0--0-0-0-0--0--0-0-0--0-0--0-0--0-0-0-0--|
G--0--0-0-0--0-0--0-0--0-0-0-0--0--0-0-0--0-0--0-0--0-0-0-0--|
D--2--2-2-2--2-2--2-2--2-2-2-2--2--2-2-2--2-2--2-2--2-2-2-2--|
A--2--2-2-2--2-2--2-2--2-2-2-2--2--2-2-2--2-2--2-2--2-2-2-2--|
E--0--0-0-0--0-0--0-0--0-0-0-0--0--0-0-0--0-0--0-0--0-0-0-0--|

e--3--3-3-3--3-3--3-3--3-3-3-3--3--3-3-3--3-3--3-3--3-3-3-3-3--|
B--0--0-0-0--0-0--0-0--0-0-0-0--0--0-0-0--0-0--0-0--0-0-0-0-0--|
G--2--2-2-2--2-2--2-2--2-2-2-2--2--2-2-2--2-2--2-2--2-2-2-2-0--|
D--2--2-2-2--2-2--2-2--2-2-2-2--2--2-2-2--2-2--2-2--2-2-2-2-0--|
A--0--0-0-0--0-0--0-0--0-0-0-0--0--0-0-0--0-0--0-0--0-0-0-0-2--|
E--X--X-X-X--X-X--X-X--X-X-X-X--X--X-X-X--X-X--X-X--X-X-X-X-3--|
Comments