Brand New - Okay I Believe You But My Tommy Gun Dont Chords & Tabs

 

Okay I Believe You But My Tommy Gun Dont Chords & Tabs

Brand New Chords & Tabs

Version: 3 Type: Tab 0 ratings
1 star 2 stars 3 stars 4 stars 5 stars
comments

Okay I Believe You But My Tommy Gun Dont Tab

Brand New

"Okay I Believe You, But My Tommygun Don't"


INTRO/VERSE 1
-----------------------------
-----------------------------
----------------------------- REPEAT 10X
---44444444/888--------------
---66666666/999--0--666--0---
-----------------0--777--0---

THEN THIS
----------------------------------------------------
----------------------------------------------------
----------------------------------------------------
---6666666-----------------8888888--0--8888888--0---
---4444444--0--8888888--0--9999999--0--6666666--0---
------------0--6666666--0---------------------------

------------------------------------------------------------------
------------------------------------------------------------------
------------------------------------------------------------------
---6666666-----------------8888888--0--888877776666666666666666---
---4444444--0--8888888--0--9999999--0--666655554444444444444444---
------------0--6666666--0-----------------------------------------

-------------------------------------
-------------------------------------
------------------------------------- REPEAT 11X
-----4---4---4-------8---------------
---6---6---6---6-6/9---9-----6-------
-------------------------0-7---7-0---

THEN
--------------------------------------------------------------------
--------------------------------------------------------------------
--------------------------------------------------------------------
-----6---6---6-----------------------8---8---8-------8---8---8------
---4---4---4---4-----8---8---8-----9---9---9---9-0-6---6---6---6-0--
-----------------0-6---6---6---6-0----------------------------------
[ Tab from: http://www.guitartabs.cc/tabs/b/brand_new/okay_i_believe_you_but_my_tommy_gun_dont_tab_ver_3.html ]
----------------------------------------------------------------------------
----------------------------------------------------------------------------
----------------------------------------------------------------------------
-----6---6---6-----------------------8---8---8-------8---8---7---7---6---6--
---4---4---4---4-----8---8---8-----9---9---9---9-0-6---6---5---5---4---4---4
-----------------0-6---6---6---6-0------------------------------------------

-----------------------------------
-----------------------------------
-----------------------------------
--6---6---6---6---6---6----6/------
----4---4---4---4---4---4--4/4-4---
----------------------------/2-2---

CHORUS
GUITAR 1
-------------------------------------------
-------------------------------------------
-------------------------------------------
---------4-4--4444--8-8--8888--4-4--4444---
---4444--2-2--2222--6-6--6666--2-2--2222---
---2222------------------------------------


CHORUS 
GUITAR 2 PLAYS THIS IN THE BACKGROUND
------------------------------------------------------------
------------------------------------------------------------
------------------------------------------------------------
--4-4-4/6-4-3-4-4-4-4\1-1-4/6-4-3-4-4-4/8-8-4-4-4/6-4-3-4---
------------------------------------------------------------
------------------------------------------------------------

-----------------------------------------
-----------------------------------------
-----------------------------------------
---4-4-4/6-4-3-4-4-4-4/6-4-3-4-4-4/8-8---
-----------------------------------------
-----------------------------------------


THAT'S WHAT I GOT SO FAR

MXBRANDON987
Comments