Brand New - Mix Tape Chords & Tabs

 

Mix Tape Chords & Tabs

Brand New Chords & Tabs

Version: 1 Type: Tab 0 ratings
1 star 2 stars 3 stars 4 stars 5 stars
comments

Mix Tape Tab

   
Tabbed by: Ryan McCulloch of "A Silence Fell".

       *Tune in drop D (half a step down).*

e--------------------||   intro \ verse
b--------------------||
g----6---6---6---4---||
d---7-7-7-7-7-7-7-7--||
a--7---7---5---5-----||
d----------0---------||
I've got a twenty dollar...   
  Once you figure out a confortable hand postion this part is easy, so experiment
in using your different postions, even though most people don't like to I still
think It's easiest to use your pinky to hold the 7 on D.

e-------------------------------------------------|| Coda
b-------------------------------------------------||
g------------------2--2--2-2--2--7--7--7-7--7-7~--||
d------------------2--2--2-2--2--7--7--7-7--7-7~--||
a------------------0--0--0-0--0--5--5--5-5--5-5~--||
d------------------0-------------5----------------||
before you got to cool...

Play open A and D for the second verse.
  A     D
e---   -2-
b-0-   -3-
g-2-   -2-
d-2-   ---
a-0-   ---
d---   ---
[ Tab from: http://www.guitartabs.cc/tabs/b/brand_new/mix_tape_tab.html ]
O kay here's the cool part it might take some practice to get it right.
   - During the 2nd coda ( or the chorus with no lyrics) play this
e-------------------------------------------------------------||
d-------------------------------------------------------------||
g-----2-----2-----2---2-----2-----7-----7---7---7---7-----7---||
d-----2-----2-----2---2-----2-----7-----7---7---7---7-----7---||
a-0-0-0-0-0-0-0-0-0-0-0-0-0-0-5-5-5-5-5-5-5-5-5-5-5-5-5-5-5---||
d-------------------------------------------------------------||
--m-m-o-m-m-o-m-m-o-m-o-m-m-o-m-m-o-m-m-o-m-o-m-o-m-o-m-m-o-
(m = mute    o = open)

And the other guitar plays this
e------------------------------------------------------------||
b---------------------------------------3-----3----7777753~--||
g---------------------------------------2-----2----------2~--||
d-----2-----2-----2h4p2-2h4p2-2h4p2-0-0-0-0-0-0-0-0----------||
a-0-0-0-0-0-0-0-0------0-----0------0-0-0-0-0-0-0-0----------||
d------------------------------------------------------------||
--m-m-o-m-m-o-m-m-o-o-om-o-o-m-o-o--m-m-o-m-m-o-m-m-oooooo~

And thats it it's fun to jam out with since it never reall y leaves the cords
of just "A" and "D", so enjoy.

Any questions, corrections are comments email Ryan at Newfound41@cs.com
Comments